Song name
# A B C D E F G H I J K L M N O P Q R S T U V W X Y Z

Undeclinable Ambuscade - Snowboard tab

Intro
----------------------------------------------------------------
----------------------------------------------------------------
----------------------------------------------------------------
----------------------------------------------------------------
-----------------745555555-----999999-----74555555--------------
---555555-------------------------------------------------------


Chorus
--------------------------------------------------------------------------
--------------------------------------------------------------------------
------------9-6-777777---111111111111---9-6-777777------------------------
---777777---9-6-777777---111111111111---9-6-777777------------------------
---777777---7-4-555555----9-9-9-9-9-9---7-4-555555------------------------
---555555-----------------------------------------------------------------

SOLO
---------------------------------------------------------------------------
---9---7-6-7-6-----6---7-6-7-6-------9---7-6-7-6-----6---7-6-7-6-----------
---------------7-9-------------7-9---------------7-9-------------7-9-------
---------------------------------------------------------------------------
---------------------------------------------------------------------------
---------------------------------------------------------------------------

Verse
--------------------------------------------------------------------------
--------------------------------------------------------------------------
----7---1111--9--------7---1111--9--------7---1111--9--------7---1111--9--
-77-7---1111--9-----77-7---1111--9-----77-7---1111--9-----77-7---1111--9--
-77-5---9-9---7-----77-5---9-9---7-----77-5---9-9---7-----77-5---9-9---7--
-55-----------------55-----------------55-----------------55--------------


That's all! Have fun!
Tap to rate this tab
# A B C D E F G H I J K L M N O P Q R S T U V W X Y Z