Song name
# A B C D E F G H I J K L M N O P Q R S T U V W X Y Z

Under A Nightmare - Go Go Zombie tab

these guys are a new band out of pittsburg. they really kick ass. this is the only
song i've learned so far. you can order thier new cd at  "underanightmare.cjb.net"
this website also has concert dates and so forth. well heres the tab for go go zombie,
and trust me it's right because i know the lead guitarist for the band and he showed me.

VERSE
E---------------------------------------------------------------------------|
B---------------------------------------------------------------------------|
G---------------------------------------------------------------------------|
D----------------------------5-5-5-5----------------------------------------|
A---7-7-7-7----3-3-3-3-------3-3-3-3----5-5-5-5-----------------------------|
E---5-5-5-5----1-1-1-1------------------3-3-3-3-----------------------------|

CHORUS

E---------------------------------------------------------------------------|
B---------------------------------------------------------------------------|
G---------------------------------------------------------------------------|
D---------------------------------------------------------------------------|
A--3/---10\---5-------------------------------------------------------------|
E--1/---8\----3-------------------------------------------------------------|
Tap to rate this tab
# A B C D E F G H I J K L M N O P Q R S T U V W X Y Z