Song name
# A B C D E F G H I J K L M N O P Q R S T U V W X Y Z

Under A Nightmare - Wandering Screams tab

VERSE
E--------------------------------------------------------------------|
B--------------------------------------------------------------------|
G--------------------------------------------------------------------|
D--7-7-7-7-7-7-7-7-7----4-4-4-4-4-4-4-4-4----------------------------|
A--5-5-5-5-5-5-5-5-5----2-2-2-2-2-2-2-2-2---2-2-2-2-2-2--5-5-5-5-5-5-|
E-------------------------------------------0-0-0-0-0-0--3-3-3-3-3-3-|


CHORUS
E-----------------------------|
B-----------------------------|
G-----------------------------|
D-4------7--------------------|let chords ring out
A-2--5---5--7-----------------|
E----3------5-----------------|
Tap to rate this tab
 
# A B C D E F G H I J K L M N O P Q R S T U V W X Y Z