Song name
# A B C D E F G H I J K L M N O P Q R S T U V W X Y Z

Under A Nightmare - Coffin Love tab

VERSE
E--------------------------------------------|
B--------------------------------------------|
G--------------------------------------------|
D--7-7-7-7-7-7-7---4-4-4-4-4-4-4-4-----------|
A--5-5-5-5-5-5-5---2-2-2-2-2-2-2-2-----------|
E--------------------------------------------|

CHORUS
E----------------------------------------------|
B----------------------------------------------|
G-----------------------------then after --7---| chord just go right back
D-----------------------------           --5---|
A--5/--7----------------------to the --5-------| chord n repeat as many times as
E--3/--5----------------------       --3-------|
                              the song calls for
Tap to rate this tab
# A B C D E F G H I J K L M N O P Q R S T U V W X Y Z