Song name
# A B C D E F G H I J K L M N O P Q R S T U V W X Y Z

Under A Nightmare - Bats In A Bondfire tab

Help us improve GuitareTab! Take a short survey!
verse
E----------------------------------------------------------------------------|
B----------------------------------------------------------------------------|
G----------------------------------------------------------------------------|
D-------------------5-5-5-5-5-5-5-5-5----------------------------------------|
A--7-7-7-7-7-7-7-7--3-3-3-3-3-3-3-3-3--5-5-5-5-5-5-5-5-5--3--5-5-5-5-5-5-5-5-|
E--5-5-5-5-5-5-5-5---------------------3-3-3-3-3-3-3-3-3--1--3-3-3-3-3-3-3-3-|

chorus
E---------------------------------------|
B---------------------------------------|
G---------------------------------------|
D------7-7--------------7-7-------------|
A-7-7--5-5--5-5----7-7--5-5--5-5--------|
E-5-5-------3-3----5-5-------3-3--------|
i think this repeats like 4 times just listen to the song for exact times....
then just go straight bk to the verse
Related for Bats In A Bondfire tab