Song name
# A B C D E F G H I J K L M N O P Q R S T U V W X Y Z

Under A Nightmare - Cryptina tab

VERSE
E------------------------------------------------------------------|
B------------------------------------------------------------------|
G------------------------------------------------------------------|
D--5-5-5-5-5-5-5-5-------------------------------------------------|
A--3-3-3-3-3-3-3-3--5-5-5-5-5-5-5-5--2-2-2-2-2-2--3-3-3-3-3-3-3-3--|
E-------------------3-3-3-3-3-3-3-3--0-0-0-0-0-0--1-1-1-1-1-1-1-1--|

CHORUS
E--------------------------------------|
B--------------------------------------|
G--------------------------------------|
D------------------5-5-5---------------|
A--7-7-7---3-3-3---3-3-3---5-5-5-------|
E--5-5-5---1-1-1-----------3-3-3-------|
Tap to rate this tab
# A B C D E F G H I J K L M N O P Q R S T U V W X Y Z