Song name
# A B C D E F G H I J K L M N O P Q R S T U V W X Y Z

Under A Nightmare - Midnight Skull tab

tune to C#        * = palm mute

intro/verses
E----------------------------------------|this is the intro and the verses
B----------------------------------------|just repeat as needed.
G----------------------------------------|
D----------------------------------------|
A--8--8-8-8-8-8-8--4-4-4-4--6-6-6-6--8---|
E--6--6-6-6-6-6-6--2-2-2-2--4-4-4-4--6---|
      * * * * * *  * * * *  * * * *

CHORUS
E-------------------------------------------|
B-------------------------------------------|
G-------------------------------------------|
D-------------------------------------------|
A--4-4-4-4---7-7-7-7-----2-2-2-2------------|
E--2-2-2-2---5-5-5-5-----0-0-0-0------------|
switchblade, on a friday night
they, wanna play in pools of blood
Tap to rate this tab
# A B C D E F G H I J K L M N O P Q R S T U V W X Y Z