Song name
# A B C D E F G H I J K L M N O P Q R S T U V W X Y Z

Under A Nightmare - Cant Wait Till Halloween tab

VERSES
E--------------------------------------------------|
B--------------------------------------------------|
G--------------------------------------------------|
D--------------------------------------------------|
A-4-4-4-4-4-4-4-4-4----7-7-7-7-7-7-7-7-7-----------|
E-2-2-2-2-2-2-2-2-2----5-5-5-5-5-5-5-5-5-----------|

CHORUS
E------------------------------------|
B------------------------------------|
G------------------------------------|
D---------------7-7-7-7-7-7-7--------|
A-4-4-4-4-4-4---5-5-5-5-5-5-5--------|
E-2-2-2-2-2-2------------------------|
cant wat till, halloween

dont know the solo yet, once i get it ill post it
Tap to rate this tab
 
# A B C D E F G H I J K L M N O P Q R S T U V W X Y Z