Song name
# A B C D E F G H I J K L M N O P Q R S T U V W X Y Z

Under A Nightmare - Razor Blade Smile tab

Help us improve GuitareTab! Take a short survey!
intro
E----------------------|
B----------------------|
G----------------------|
D--9-------------------|
A--7-------------------|
E--0-------------------|
this is a rhythm guitar tab, this one power chord is stomped over a crazy ass lead part 
i have yet to conquer. just listen to te song to get it, it just stomps this chord 1 
and pauses, then again till the intro is over.

verses
E----------------------------------------------------------|
B----------------------------------------------------------|
G----------------------------------------------------------|
D-9-9-9-9-9-9--5-5-5-5-5-5--7-7-7-7-7-7--9-9-9-------------|
A-7-7-7-7-7-7--3-3-3-3-3-3--5-5-5-5-5-5--7-7-7-------------|
E----------------------------------------------------------|

1RST BREAKDOWN
E------------------------|
B------------------------|just let these chrods ring out
G-9---5---7---9----------|
D-9---5---7---9----------|
A-7---3---5---7----------|
E------------------------|

then it play thru the intro again, then another verse, another breakdown, intro, then 
the last verse and the song ends. the riffs never change so just use the ones tabbed above 
the order i gave them in this lil paragraph.
Related for Razor Blade Smile tab