Song name
# A B C D E F G H I J K L M N O P Q R S T U V W X Y Z

Under The Flood - In Vain tab

Song: In Vain
Band: Under The Flood
Album: The Witness

Intro x2
(Guitar 1)
e|-------------------------------------13----------|
B|----------------------------------------15-------|
G|-15-14-12-14----14-15-14-12-14----14-------12-14-|
D|-------------------------------------------------|
A|-------------------------------------------------|
D|-------------------------------------------------|
(Guitar 2) (Wait until second time to play this part)
e|-------------------------------------------------|
B|-------------------------------------------------|
G|-------------------------------------------------|
D|-------5--5--5-----------5--5--5-----1--1--1--1--|
A|-------5--5--5-----------5--5--5-----1--1--1--1--|
D|-------5--5--5-----------5--5--5-----1--1--1--1--|

(Guitar 1)
e|-------------------------------------------------|
B|-------------------------------------------------|
G|-15-14-12-14----14-15-14-12-14----14-10h12-12/14-|
D|-------------------------------------------------|
A|-------------------------------------------------|
D|-------------------------------------------------|
(Guitar 2) (Fades in)
e|-------------------------------------------------|
B|-------------------------------------------------|
G|-------------------------------------------------|
D|-------5--5--5-----------5--5--5-----1--1--1--1--|
A|-------5--5--5-----------5--5--5-----1--1--1--1--|
D|-------5--5--5-----------5--5--5-----1--1--1--1--|

Intro Part 2
(Both Guitars)
e|---------------------------------|---------------------------------|
B|---------------------------------|---------------------------------|
G|---------------------------------|---------------------------------|
D|-5-5-5-3-3-3-5-5-5-1-1-1---------|-5-5-5-3-3-3-5-5-5-1-1-1-------1-|
A|-5-5-5-------5-5-5-------1-1-3-3-|-5-5-5-------5-5-5-------1-1---1-|
D|-5-5-5-------5-5-5-------1-1-3-3-|-5-5-5-------5-5-5-------1-1---1-|

(Guitar 1)
e|---------------------------------|---------------------------------|
B|---------------------------------|---------------------------------|
G|---------------------------------|---------------------------------|
D|-5-5-5-3-3-3-5-5-5-1-1-1---------|-5-5-5-3-3-3-5-5-5-1-1-1-------1-|
A|-5-5-5-------5-5-5-------1-1-3-3-|-5-5-5-------5-5-5-------1-1---1-|
D|-5-5-5-------5-5-5-------1-1-3-3-|-5-5-5-------5-5-5-------1-1---1-|
(Guitar 2)
e|-------------------------------------------------|
B|-------------------------------------------------|
G|-12-12-12-12-12b12-12-12-12-12-12-12-12\10-10-10/|
D|-------------------------------------------------|
A|-------------------------------------------------|
D|-------------------------------------------------|
(Guitar 2)
e|-------------------------------------------------|
B|-------------------------------------------------|
G|-12-12-12-12-12b12-12-12-12-12-12-12-12\---------|
D|-------------------------------------------------|
A|-------------------------------------------------|
D|-------------------------------------------------|

Transition
(Guitar 1)
e|---------------------------------|---------------------------------|
B|---------------------------------|---------------------------------|
G|-------------3-3-3---------------|-------------3-3-3---------------|
D|-5-5-5-3-3-3-------3-3-3-5-5-3-3-|-5-5-5-3-3-3-------3-3-3-5-5-3-3-|
A|---------------------------------|---------------------------------|
D|---------------------------------|---------------------------------|
(Guitar 2)
e|---------------------------------|---------------------------------|
B|---------------------------------|---------------------------------|
G|-12~-----------------------------|(12)-----------------------------|
D|-15b-----------------------------|(17)-----------------------------|
A|---------------------------------|---------------------------------|
D|---------------------------------|---------------------------------|

Verse x4
(Guitar 1)
e|-------------------------------------13----------|
B|----------------------------------------15-------|
G|-15-14-12-14----14-15-14-12-14----14-------12-14-|
D|-------------------------------------------------|
A|-------------------------------------------------|
D|-------------------------------------------------|
(Guitar 2)
e|-------------------------------------------------|
B|-------------------------------------------------|
G|-------------------------------------------------|
D|-------5--5--5-----------5--5--5-----1--1--1--1--|
A|-------5--5--5-----------5--5--5-----1--1--1--1--|
D|-------5--5--5-----------5--5--5-----1--1--1--1--|

(Guitar 1)
e|-------------------------------------------------|
B|-------------------------------------------------|
G|-15-14-12-14----14-15-14-12-14----14-10h12-12/14-|
D|-------------------------------------------------|
A|-------------------------------------------------|
D|-------------------------------------------------|
(Guitar 2)
e|-------------------------------------------------|
B|-------------------------------------------------|
G|-------------------------------------------------|
D|-------5--5--5-----------5--5--5-----1--1--1--1--|
A|-------5--5--5-----------5--5--5-----1--1--1--1--|
D|-------5--5--5-----------5--5--5-----1--1--1--1--|

Pre-Chorus
(Guitar 1)
e|-------------------------------------------------|
B|-------------------------------------------------|
G|-15-------14-------12~---------------------------|
D|-------------------------------------------------|
A|-------------------------------------------------|
D|-------------------------------------------------|
(Guitar 2)
e|-------------------------------------------------|
B|-------------------------------------------------|
G|----------3--------2-----------------------2-----|
D|----------------------------3--------5-----------|
A|-------------------------------------------------|
D|-------------------------------------------------|

(Guitar 1)
e|-------------------------------------------------|
B|-------------------------------------------------|
G|-15-------14-------10/12~------------------------|
D|-------------------------------------------12\---|
A|-------------------------------------------12\---|
D|-------------------------------------------12\---|
(Guitar 2)
e|-------------------------------------------------|
B|-------------------------------------------------|
G|----------3--------2-----------------------------|
D|----------------------------3--------0~----------|
A|-------------------------------------------------|
D|-------------------------------------------------|

Chorus x2
(Both Guitars)
e|---------------------------------|---------------------------------|
B|---------------------------------|---------------------------------|
G|---------------------------------|---------------------------------|
D|-5~--5-5~--5-5~--5-5~--5-5/8~----|-5~--5-5~--5-5~--5-5~--5-5/8~----|
A|-5~--5-5~--5-5~--5-5~--5-5/8~----|-5~--5-5~--5-5~--5-5~--5-5/8~----|
D|-5~--5-5~--5-5~--5-5~--5-5/8~----|-5~--5-5~--5-5~--5-5~--5-5/8~----|

(Guitar 1)
e|---------------------------------|---------------------------------|
B|---------------------------------|---------------------------------|
G|---------------------------------|---------------------------------|
D|-1~----1-----1-----1-----1---1---|-1~----1-----1-----1-----1---3-3-|
A|-1~--1-1---1-1---1-1---1-1---1---|-1~--1-1---1-1---1-1---1-1---3-3-|
D|-1~--1-1---1-1---1-1---1-1---1---|-1~--1-1---1-1---1-1---1-1---3-3-|
(Guitar 2)
e|---------------------------------|(17)-13-17-13\-------------------|
B|---------------------------------|---------------------------------|
G|---------------------------------|---------------------------------|
D|-1~----1-----1-----1/8-8/1010/11-|-----------------8-8/1010/11\10--|
A|-1~--1-1---1-1---1-1-x-x-x-x--x--|-----------------x-x-x-x--x--x---|
D|-1~--1-1---1-1---1-1/8-8/1010/11-|-----------------8-8/1010/11\10--|

Verse 2
(Both Guitars) x2
e|---------------------------------|---------------------------------|
B|---------------------------------|---------------------------------|
G|---------------------------------|---------------------------------|
D|-----5-5-5-------5-5-5---1-1-1-1-|-----5-5-5-------5-5-5---1-1-1-1-|
A|-----5-5-5-------5-5-5---1-1-1-1-|-----5-5-5-------5-5-5---1-1-1-1-|
D|-----5-5-5-------5-5-5---1-1-1-1-|-----5-5-5-------5-5-5---1-1-1-1-|

(Guitar 1) x2
e|---------------------------------|---------------------------------|
B|---------------------------------|---------------------------------|
G|---------------------------------|---------------------------------|
D|-----5-5-5-------5-5-5---1-1-1-1-|-----5-5-5-------5-5-5---1-1-1-1-|
A|-----5-5-5-------5-5-5---1-1-1-1-|-----5-5-5-------5-5-5---1-1-1-1-|
D|-----5-5-5-------5-5-5---1-1-1-1-|-----5-5-5-------5-5-5---1-1-1-1-|
(Guitar 2) x2
e|---------------------------------|---------------------------------|
B|---------------------------------|---------------------------------|
G|---------------------------------|---------------------------------|
D|-----5---8-7-----5---8-7-10\-----|-----5---8-7-----5---8-7-10\-----|
A|-------------8-------------------|-------------8-------------------|
D|---------------------------------|---------------------------------|

Chorus x2

Bridge
(Guitar 1)
e|-----------------------------|-----------------------------|
B|-----------------------------|-----------------------------|
G|-----------------------------|-----------------------------|
D|-8-4-5-0-2-3-0-5-0-3-0-2-3-2-|-8-4-5-0-2-3-0-5-0-3-0-2-3-2-|
A|-8-4-5-0-2-3-0-5-0-3-0-2-3-2-|-8-4-5-0-2-3-0-5-0-3-0-2-3-2-|
D|-8-4-5-0-2-3-0-5-0-3-0-2-3-2-|-8-4-5-0-2-3-0-5-0-3-0-2-3-2-|
(Guitar 2)
e|-----------------------------|-----------------------------|
B|(8)--------------------------|(8)--------------------------|
G|-----------------------------|-----------------------------|
D|-----------------------------|-----------------------------|
A|-----------------------------|-----------------------------|
D|-----------------------------|-----------------------------|

Solo
(Guitar 1)
e|-----------------------------|-----------------------------|
B|-----------------------------|-----------------------------|
G|-----------------------------|-----------------------------|
D|-8-4-5-0-2-3-0-5-0-3-0-2-3-2-|-8-4-5-0-2-3-0-5-0-3-0-2-3-2-|
A|-8-4-5-0-2-3-0-5-0-3-0-2-3-2-|-8-4-5-0-2-3-0-5-0-3-0-2-3-2-|
D|-8-4-5-0-2-3-0-5-0-3-0-2-3-2-|-8-4-5-0-2-3-0-5-0-3-0-2-3-2-|
(Guitar 2)
e|---------------1-----5b--5b--|-3~---/15--15\11108-1011-1011|
B|-8b--8p6-3-1-3---3-1---------|-----------------------------|
G|-----------------------------|-----------------------------|
D|-----------------------------|-----------------------------|
A|-----------------------------|-----------------------------|
D|-----------------------------|-----------------------------|

(Guitar 1)
e|------------------------------------------|
B|------------------------------------------|
G|------------------------------------------|
D|-8--4--5--0--2--3--0--5--0--3--0--2--3--2-|
A|-8--4--5--0--2--3--0--5--0--3--0--2--3--2-|
D|-8--4--5--0--2--3--0--5--0--3--0--2--3--2-|
(Guitar 2)
e|-15-15-13h15-15-13h15-15-13h15-15-13-15~--|
B|------------------------------------------|
G|------------------------------------------|
D|------------------------------------------|
A|------------------------------------------|
D|------------------------------------------|

(Guitar 1)
e|---------------------------------------------------------|
B|---------------------------------------------------------|
G|---------------------------------------------------------|
D|-8---4---5---0---2---3---0---5---0---3---0---2---3---2---|
A|-8---4---5---0---2---3---0---5---0---3---0---2---3---2---|
D|-8---4---5---0---2---3---0---5---0---3---0---2---3---2---|
(Guitar 2)                                  whammy pedal here
e|-17p15p13-18p15p13-17p15p13-18p15p13-17p15p13-/18---18---|
B|--------------------------------------------------15--15-|
G|---------------------------------------------------------|
D|---------------------------------------------------------|
A|---------------------------------------------------------|
D|---------------------------------------------------------|

Break
(Guitar 1)
e|---------------------------------|
B|---------------------------------|
G|---------------------------------|
D|(3)----------------------3-3-3-3-|
A|(3)----------------------3-3-3-3-|
D|(3)----------------------3-3-3-3-|
(Guitar 2)
e|-18~-----------------------------|
B|---------------------------------|
G|---------------------------------|
D|---------------------------------|
A|---------------------------------|
D|---------------------------------|

Chorus x2

Outro
(Guitar 1)
e|---------------------------------|---------------------------------|
B|---------------------------------|---------------------------------|
G|---------------------------------|---------------------------------|
D|-5-5-5-3-3-3-5-5-5-1-1-1---------|-5-5-5-3-3-3-5-5-5-1-1-1-------1-|
A|-5-5-5-------5-5-5-------1-1-3-3-|-5-5-5-------5-5-5-------1-1---1-|
D|-5-5-5-------5-5-5-------1-1-3-3-|-5-5-5-------5-5-5-------1-1---1-|
(Guitar 2)
e|---------------------------------|---------------------------------|
B|---8---8-6-10-8-6--8---8---------|---8---8-6-10-8-6--8---8---------|
G|-5---7-----------5---7---5-7-8-7-|-5---7-----------5---7-----------|
D|---------------------------------|---------------------------------|
A|---------------------------------|---------------------------------|
D|---------------------------------|---------------------------------|

(Guitar 1)
e|---------------------------------|---------------------------------|
B|---------------------------------|---------------------------------|
G|---------------------------------|---------------------------------|
D|-5-5-5-3-3-3-5-5-5-1-1-1---------|-5-5-5-3-3-3-5-5-5-1-1-1-------1-|
A|-5-5-5-------5-5-5-------1-1-3-3-|-5-5-5-------5-5-5-------1-1---1-|
D|-5-5-5-------5-5-5-------1-1-3-3-|-5-5-5-------5-5-5-------1-1---1-|
(Guitar 2)
e|---------------------------------|---------------------------------|
B|---8---8-6-10-8-6--8---8---------|---8---8-6-10-8-6--8---8---------|
G|-5---7-----------5---7---5-7-8-7-|-5---7-----------5---7-----------|
D|---------------------------------|---------------------------------|
A|---------------------------------|---------------------------------|
D|---------------------------------|---------------------------------|
(Guitar 3)
e|-------------------------------------------------|
B|-------------------------------------------------|
G|-12-12-12-12-12b12-12-12-12-12-12-12-12\10-10-10/|
D|-------------------------------------------------|
A|-------------------------------------------------|
D|-------------------------------------------------|
(Guitar 3)
e|-------------------------------------------------|
B|-------------------------------------------------|
G|-12-12-12-12-12b12-12-12-12-12-12-12-12\---------|
D|-------------------------------------------------|
A|-------------------------------------------------|
D|-------------------------------------------------| End
Tap to rate this tab
# A B C D E F G H I J K L M N O P Q R S T U V W X Y Z