Guitaretab - guitar tabs
Song name
# A B C D E F G H I J K L M N O P Q R S T U V W X Y Z

Undercast - Engraved tab

Title:Engraved
Artist:Undercast

guitar:I
e|-------------------|
b|-------------------|
g|-----5-55------7-77|4x
d|2-22-5-55-5-55-7-77|
a|2-22-3-33-5-55-5-55|
E|0-00------3-33-----|

guitar:II (comes in after guitar plays twice)
[ Tab from: http://www.guitaretab.com/u/undercast/67276.html ]
e|-------------------|
b|-------------------|
g|-----6-66------8-66|2x
d|2-22-x-xx-2-22-x-xx|
a|2-22-4-44-2-22-6-66|
D|2-22------2-22-----|

guitar II

e|---------|
b|---------|
g|---------|
d|1-1-1-1-1|
a|1-1-1-1-1|
D|1-1-1-1-1|
  * * * * *
guitar I

e|------------------|
b|------------------|
g|5555-222-555-7-5-2|2x
d|------------------|
a|------------------|
E|------------------|

http://www.undercastband.com/flashindex.html
Related for Engraved tab
×
Engraved