Song name
# A B C D E F G H I J K L M N O P Q R S T U V W X Y Z

Undercode - Freedom Is Mine tab

Undercode - Freedom (is mine)


\: slide down
/: slide up
h: hammer on
p: pull off
b: bend up to note between ()
r: release bend
~: vibrato

Eb tuning

Intro 
Guitar 1
----|-------------------------|--------------------------|
----|-------------------------|--------------------------|
----|--0---0---------0--0-----|--0--0--------0-----------|
----|----2---2---2/4--2---2/4-|----2--2--2/4---2---------|  X 2
----|----------2--------------|---------2----------3\2-0-|
----|0------------------------|0-------------------------|

Guitar 2 w/ vibrato effect                            PM-------------|
0----|--------------|----------0----|----------------|----------------|
-0---|--------------|-----------0---|----------------|----------------|
--0--|--------------|------------0--|----------------|----------------|
---2-|--------------|-------------2-|----------------|-222222222222222|
----2|--------------|--------------2|----------------|-222222222222222|
-----|0-------------|---------------|0---------------|-000000000000000|

Fig.1 (Main riff/Chorus)                         
-|--------------------------------|--------------------------------|
-|--------------------------------|--------------------------------|
-|--------------------------------|--------------------------------|
-|--------------------------------|------------------------10\9-7--|
-|-10p7-10p7---9~---10p7--10p7-9~-|-10p7--10p7---9~--10p7--10\9-7--|
-|0----------0----0---------------|0-----------0---0--------8\7-5--|

Fig. 2  (Verse)
-|----------------|----------------|----------------|----------------|
-|----------------|----------------|----------------|----------------|
-|----------------|----------------|----------------|----------------|
-|2---2---2---2-2-|2---2---2---2-2-|2---2---2---2-2-|2---2---2---2-2-|
-|2---2---2---2-2-|2---2---2---2-2-|2---2---2---2-2-|2---2---2---2-2-|
-|0---0---0---0-0-|0---0---0---0-0-|0---0---0---0-0-|0---0---0---0-0-|


-|----------------|----------------|----------------|----------------|
-|----------------|----------------|----------------|----------------|
-|2---2---2---2-2-|2---2---2---2-2-|4---4---4---4-4-I4---4---4---4-4-|
-|2---2---2---2-2-|2---2---2---2-2-|4---4---4---4-4-I4---4---4---4-4-|
-|0---0---0---0-0-I0---0---0---0-0-|2---2---2---2-2-|2---2---2---2-2-|
-|----------------|----------------|----------------|----------------|


Fig 3. (Bridge)
     PM-I     PM    PM-              PM-I         PM         PM  
-|------------------------------|----------------------------|
-|------------------------------|----------------------------|
-|------------------------------|----------------------------|
-|7/9-9-9-9\7-7-7\5-5-5-4/5-4p2-|7/9-9-9-9\7-7-7\5-5-5-4/5-2-|
-|7/9-9-9-9\7-7-7\5-5-5-4/5-4p2-|7/9-9-9-9\7-7-7\5-5-5-4/5-2-|
-|5/7-7-7-7\5-5-5\3-3-3-2/3-2p0-|5/7-7-7-7\5-5-5\3-3-3-2/3-0-|


-|------------------------------|----------------------------|
-|------------------------------|----------------------------|
-|------------------------------|--------------------------5-|
-|7/9-9-9-9\7-7-7\5-5-5-4/5-4p2-|7/9-9-9-9\7-7-7\5-5-5-4/5-5-|
-|7/9-9-9-9\7-7-7\5-5-5-4/5-4p2-|7/9-9-9-9\7-7-7\5-5-5-4/5-3-|
-|5/7-7-7-7\5-5-5\3-3-3-2/3-2p0-|5/7-7-7-7\5-5-5\3-3-3-2/3---|

Fig. 3 
 PM--------------------------------------------I
-|--------------------------|----------------------------|
-|--------------------------|--------------------0-------|
-|---2----2----2----2----2--|---4-----4-----4------4-----|
-|-4---4----4----4----4----4|--5--5-----5----5-------5---|
-|2-----2----2----2----2----|3------3-----3----3-------3-|
-|--------------------------|----------------------------|


  PM------------------------I
-|-------------------------|--------------------------------|
-|-------------------------|--0-----0-----------------------|
-|---2----2----2----2----2-|----4-----4---------------------|
-|-4--4----4----4----4----4|------------5--5/7--7-7--7/9--9-|
-|2----2----2----2----2----|3-----3--------3/5--5-5--5/7--7-|
-|-------------------------|--------------------------------|

Fig. 1 (Chorus)


 Fill.
-|--------------------------------|--------------------------|
-|--------------------------------|--------------------------|
-|9--11--12--11-9-9--11--12--11-9-|4--6--7--6-4-6--8--9--8-6-|
-|9---9---9---9-9-9---9---9---9-9-|4--4--4--4-4-6--6--6--6-6-|
-|--------------------------------|--------------------------|
-|--------------------------------|--------------------------|


Guitar solo

-|-------------------------------------------------------------------|
-|-7b(8)r(7)b(8)r(7)b(8)r(7)b(8)r(7)b(8)r(7)b(8)r(7)b(8)r(7)---5-5~--|
-|-------------------------------------------------------------------|
-|-------------------------------------------------------------------|
-|-------------------------------------------------------------------|
-|-------------------------------------------------------------------|


-|-------------------------------------------|
-|----------------------------5h7p5---5--7/8-|
-|-4-4b(5)-4~--4h5p4---4--5/7-------7--------|
-|-------------------7-----------------------|
-|-------------------------------------------|
-|-------------------------------------------|

-|-15p12--12-------12h15p12--12--------|
-|------15--15b(17)--------15--15b(17)-|
-|-------------------------------------|
-|-------------------------------------|
-|-------------------------------------|
-|-------------------------------------|

-|-12h15p12---12-------12------12----------12------12-|
-|---------15---15b(17)-15b(17)-15b(17)~----15b(17)---|
-|----------------------------------------------------|
------------------------------------------------------|
-|----------------------------------------------------|
-|----------------------------------------------------|


-|-17p12---17p12---17p12-15p12---15p12---15-|
-|-------15-----15------------15-------15---|
-|------------------------------------------|
-|------------------------------------------|
-|------------------------------------------|
-|------------------------------------------|


-|-14h15p14p12-14p12--12--------------------------------------|
-|------------------15--13h15p13p12-13p12-------15------------|
-|---------------------------------------14b(16)--(16)r14--12-|
-|------------------------------------------------------------|
-|------------------------------------------------------------|
-|------------------------------------------------------------|


-|-------------------------------------------|
-|---12--------------------------------------|
-|-14--14-12-14p12---------------------------|
-|----------------14-12-14p12----------------|
-|---------------------------14-12-14p12\10--|
-|-------------------------------------------|



-|---------------------------15---------------|
-|-----------------------------15-------------|
-|------------12------14b(16)----(16)r14--12~-|
-|-------12-----14p12-------------------------|
-|-12/14---14---------------------------------|
-|--------------------------------------------|


Fig. 4 part 1
Guitar 1
Em
-|-19-15-----19-15-----191-5----19-15-----|
-|------17--------17--------17-------17---|
-|--------16--------16--------16-------16-|  X 4
-|----------------------------------------|
-|----------------------------------------|
-|----------------------------------------|

Guitar 2
-|-15-12----15-12----15-12----15-12-----|
-|------12-------12-------12-------12---|
-|--------12-------12-------12-------12-| X 4
-|--------------------------------------|
-|--------------------------------------|
-|--------------------------------------|


Fig. 4 part 2
Guitar 1
Am
-|-12-8---12-8----12-8---12-8-----|
-|-----10-----10------10-----10---|
-|-------9------9-------9------9--| X 2
-|--------------------------------|
-|--------------------------------|
-|--------------------------------|

Guitar 2

-|-8-5-----8-5-----8-5-----8-5-----|
-|-----5-------5-------5-------5---|
-|-------5-------5-------5-------5-|  X 2
-|---------------------------------|
-|---------------------------------|
-|---------------------------------|


Fig. 4 part 3
Guitar 1
Hm
-|-14-10----14-10----14-10----14-10-----|
-|------12-------12-------12-------12---|
-|--------11-------11-------11-------11-| X 2
-|--------------------------------------|
-|--------------------------------------|
-|--------------------------------------|

Gutar 2

-|-10-7-----10-7-----10-7-----10-7-----|
-|------7--------7--------7--------7---|
-|--------7--------7--------7--------7-| X 2
-|-------------------------------------|
-|-------------------------------------|
-|-------------------------------------|



-|-14--14----15\12~-------------|
-|------------------------------|
-|-11--11----12\9~--------------|
-|------------------------------|
-|------------------------------|
-|------------------------------|


Fig 2 (Verse)
Fig 3 (Bridge)
Fig 1 (Chorus) X 2
Tap to rate this tab
# A B C D E F G H I J K L M N O P Q R S T U V W X Y Z