Song name
# A B C D E F G H I J K L M N O P Q R S T U V W X Y Z

Undercode - Angelic Rebelion tab

Undercode - Angelic rebelion


\: slide down
/: slide up
h: hammer on
p: pull off
b: bend up to note between ()
r: release bend
~: vibrato
* or PM: palm muting

Tuning: D#


Intro 

Clean guitar
-|-------------------------|
-|-------------------------|
-|-------------------------|
-|--2--2--2--2--2-3-2h3-0--| X 8
-|-------------------------|
-|0--0--0--0---------------|


Fig. 1 (Main riff) 
  *   *   *   *            *   *   *   *
-|------------------------|---------------------------|
-|------------------------|---------------------------|
-|------------------------|---------------------------|
-|--------------------6/7-|---------------------------| X 4 
-|-7~--7~--7~--7~--7/8----|--7~--7~--7~--7~--7/8-7\5--|
-|0---0---0---0-----------|0---0---0---0--------------|
    
Fig. 2  (Verse)
      PM---------I    PM----------I            
-|-----------------------------------------------------|
-|-----------------------------------------------------|
-|-----------------------------------------------------|
-|2p0-2-2-002-002--5p0-2-2-002-002--6-7-6h7p6-6--------|  X 2
-|2p0-2-2-002-002--5p0-2-2-002-002--------------8-8-7~-|
-|-----------------------------------------------------|

      PM----------------I              PM----------------I
-|--------------------------------|-------------------------------|
-|--------------------------------|-------------------------------|
-|------------------------2-------|------------------------2------|
-|2p0-2-2-0-2-2-002-2-0-2-2-3p2p0-|2p0-2-2-0-2-2-002-2-0-2-2--3p2-|  X 2
-|2p0-2-2-0-2-2-002-2-0-2---3p2p0-|2p0-2-2-0-2-2-002-2-0-2----3p2-|
-|--------------------------------|-------------------------------|

Fig. 3 (Bridge)

       * *     *             * * 
-|-------------------------------|
-|-------------------------------|
-|-------------------------------|
-|5\4----------------------------|  X 3
-|3\2------7\5---5-5-4/5-4p2-----|
-|-----0-0-5\3-0-3-3-2/3-2p0-0-0-|


       * *     *             
-|------------------------------|
-|------------------------------|
-|------------------------------|
-|5\4-------------------------7-| 
-|3\2------7\5---5-5-4/5-4p2--5-|
-|-----0-0-5\3-0-3-3-2/3-2p0----|



Fig. 1 (Main riff)

Fig. 2 (Verse)

Fig. 3 (Bridge)

SOLO
First guitar

-|-------12-12-12------12-12-12-------12-12-12-------12-12-12--|
-|15b(17)-------15b(17)--------15b(17)--------15b(17)----------|
-|-------------------------------------------------------------|
-|-------------------------------------------------------------|
-|-------------------------------------------------------------|
-|-------------------------------------------------------------|


-|-------------------------------------------------------------|
-|15b(17)r(15)-13h15p13\12----12-13-15--13-12-13-12---10-10/12-|
-|-------------------------------------------------------------|
-|-------------------------------------------------------------|
-|-------------------------------------------------------------|
-|-------------------------------------------------------------|


-|-------------------------------------------------------------|
-|10-9-10---9h10p9---------------------------------------------|
-|------------------------10p9---------------------------------|
-|-------------------------------------------------------------|
-|-------------------------------------------------------------|
-|-------------------------------------------------------------|

Second guitar solo

-|11h12p11-----11h12p11-----11h12p11-----11h12p11-----------|
-|--------13-12--------13-12--------13-12--------12-10-8----|
-|------------------------------------------------------11--|
-|----------------------------------------------------------|
-|----------------------------------------------------------|
-|----------------------------------------------------------|


-|----------------------------------------------------------|
-|----------------------------------------------------------|
-|9-8---------------------------------------------8~--------|
-|---10-9-7----------------------7---7-9--7-9-10------------|
-|---------10-9-7~---7-9-10-9-10--10------------------------|
-|----------------------------------------------------------|

       *  *  *     *  *  *            *  *  *     *  *  *  *
-|----------------------------------------------------------|
-|----------------------------------------------------------|
-|8h9p8-------8h9p8-------8h9~---8h9p8-------8h9p8----------|
-|-----10-9-10-----10-9-10------------10-9-10-----10-9-10-9-| X 3
-|----------------------------------------------------------|
-|----------------------------------------------------------|

Guit. fill 

       * * *      * * *           * * *     * * * *
-|----------------------------------------------------------|
-|7h8p7-----7h8p7------7h8~--7h8p7-----7h8p7----------------|
-|-----9-8-9------9-8-9-----------9-8-9-----9-8-9-8---------|
-|----------------------------------------------------------|  X 2
-|----------------------------------------------------------|
-|----------------------------------------------------------|


Fig. 2

Fig. 3 

Fig. 1
Tap to rate this tab
 
# A B C D E F G H I J K L M N O P Q R S T U V W X Y Z