Song name
# A B C D E F G H I J K L M N O P Q R S T U V W X Y Z

Underground Heroes - Skinnie Twins tab

Intro

E||---------------------------------------------------------||
B||-6-6-----------1010-----------6-6-----------1010---------||
G||-7-7----7-7----1010---9-9-----7-7----7-7----1010---9-9---||
D||-7-7----8-8----1010---1010----7-7----8-8----1010---1010--||
A||-5-5----8-8----8-8----1010----5-5----8-8----8-8----1010--||
E||--------6-6-----------8-8------------6-6-----------8-8---||

E||---------------------------------------------------------||
B||-1212---6-6----1010----------6-6-6---------101010--------||
G||-1212---7-7----1010---9-9----7-7-7--7-7-7--101010--9-9-9-||
D||-1212---7-7----1010---1010---7-7-7--8-8-8--101010--101010||
A||-1010---5-5----8-8----1010---5-5-5--8-8-8--8-8-8---101010||
E||----------------------8-8-----------6-6-6----------8-8-8-||

Intro/Solo Thing	x2

E||-10----------------------------------------||
B||----13-11-10-11-10----10-------------------||
G||-------------------12----12-10-9-10-9-10---||
D||-------------------------------------------||
A||-------------------------------------------||
E||-------------------------------------------||

E||-10----------------------------------------||
B||----13-11-10-10h11p10----10----------------||
G||----------------------12----12-10-9-10-9-10||
D||-------------------------------------------|| 
A||-------------------------------------------||
E||-------------------------------------------||

Lead guitar doesn't play anything for the verse due to the singing.

Main Riff

E||-------------------------------------------------------------||
B||-6-x-----------1010-x----------6-6-x---------1010-x----------||
G||-7-x----7-7-x--1010-x-9-9------7-7-x--7-7-x--1010-x-9-9------||
D||-7-x----8-8-x--1010-x-1010-----7-7-x--8-8-x--1010-x-1010-----||
A||-5-x----8-8-x--8-8--x-1010-----5-5-x--8-8-x--8-8--x-1010-----||
E||--------6-6-x---------8-8-------------6-6-x---------8-8------||

E||-------------------------------------------------------------||
B||-12-x---6-6-x--1010-x----------6-x-----------1010101010101010||
G||-12-x---7-7-x--1010-x-9-9------7-x----7-7-x--1010101010101010||
D||-12-x---7-7-x--1010-x-1010-----7-x----8-8-x--1010101010101010||
A||-10-x---5-5-x--8-8--x-1010-----5-x----8-8-x--8-8-8-8-8-8-8-8-||
E||----------------------8-8-------------6-6-x------------------||

Chorus x4

E||--------------------------------------------------------||
B||-10-x---6-6-x--1212-x--------10-x---6-6-x--1212-x-------||
G||-10-x---7-7-x--1212-x-9-9----10-x---7-7-x--1212-x-9-9---||
D||-10-x---7-7-x--1212-x-1010---10-x---7-7-x--1212-x-1010--||
A||-8--x---5-5-x--1010-x-1010---8--x---5-5-x--1010-x-1010--||
E||----------------------8-8-------------------------8-8---||


-Song Structure- (Myspace Version)

Intro
Intro/Solo
Verse (no lead guitar)
Main Riff
Verse (no lead guitar)
Main Riff
Chorus
Verse (no lead guitar)
Main Riff
Verse (no lead guitar)
Main Riff
Chorus
Interlude
Main Riff
Intro/Solo

Hope you like the tab =]
Tap to rate this tab
# A B C D E F G H I J K L M N O P Q R S T U V W X Y Z