Song name
# A B C D E F G H I J K L M N O P Q R S T U V W X Y Z

Underground Heroes - Chasing A Buzz tab

Help us improve GuitareTab! Take a short survey!
tabber - micky b
email - mickybraham@hotmail.com

standard tuning e a d g b e

intro/verses 
E|---9-----9-----7----9---|
B|---11----11----7----9---|
G|---11----11----8----10--|
D|---11----11----9----11--|
A|---9-----9-----9----11--|
E|---------------7----9---|

pre chorus

E|--7-----7--6-|
B|--7-----7--6-|
G|--8--8--8--7-|
D|--9--8--9--8-|
A|--9--6--9--8-|
E|--7-----7--6-|


chorus
E|------------------------------------------------|
B|------------------------------------------------|
G|--8-8--6-6--4-4--6-6--8-8--6-6--4---------------|    does this a few times
D|--8-8--6-6--4-4--6-6--8-8--6-6--4---------------|
A|--6-6--4-4--2-2--4-4--6-6--4-4--2---------------|
E|------------------------------------------------|

post chorus
oooooooooooooh
E|----------|
B|----------|
G|-66666666-|
D|-66666666-|
A|-44444444-|
E|----------|

bridge

E|---9-----9-----7----9---|
B|---11----11----7----9---|
G|---11----11----8----10--|
D|---11----11----9----11--|
A|---9-----9-----9----11--|
E|---------------7----9---|


structure

intro
verse
intro
verse
pre chorus
chorus
intro
verse
pre chorus
chorus
bridge
chorus


the end
cheers
i couldn't work out the picking bits sorry ive been trying for ages



Related for Chasing A Buzz tab