Song name
# A B C D E F G H I J K L M N O P Q R S T U V W X Y Z

Underminded - This Insiquition tab

Underminded-a new kung fu records metal band
this insiquition
hail unamerican

Guitar 1
(drop D tuning)
---------------------------------------------------------|
---------------------------------------------------------|
---------------------------------------------------------|
-----------0--0--2--3---0----5--7--0---------0--3--2--0--|
----0--3---------------------------------3--1------------|
---------------------------------------------------------|


Guitar 2
(regular tuning)
----------------------------------------------|
----------------------------------------------|
----------------------------------------------|
----------------------------------------------|
-7-------------------------------3----5----7--|
-5-------------------------------1----3----5--|

I HOPE YOU LIKE, ummmmm, and im 100% sure of this.
Tap to rate this tab
# A B C D E F G H I J K L M N O P Q R S T U V W X Y Z