Song name
# A B C D E F G H I J K L M N O P Q R S T U V W X Y Z

Underminded - Bring On The Floodintro tab

This is a song by Underminded called "Bring On The Flood" and its a really sick song 
took me about 3 mins to firgure out..but its only the beginning so someone need to finish 
rest of the song because the breakdown is clean.

Tunning Drop C

Guitar 1
C|-00------00----0-----0------00-----0-----0-----00-----0-----0------|
G|-00--5~--00--1-0--3--0--5~--00--6--0--8--0--5~-00--10-0--8--0--5~--|
C|-00--x---00--x-0--x--0--x---00--x--0--x--0--x--00--x--0--x--0--x---|
F|-----7~------3----5-----7~------8-----10----7~-----12----10----7~--|x2
A|-------------------------------------------------------------------|
D|-------------------------------------------------------------------|

Continued...
C|--00----0-----0------00-----0-------5~---5~------------------------|
G|--00--1-0--3--0--5~--00--6--0--3----5~---5~------------------------|
C|--00--x-0--x--0--x---00--x--0--x----5~---5~------------------------|
F|------3----5-----7~------8-----5-----------------------------------|
A|-------------------------------------------------------------------|
D|-------------------------------------------------------------------|

Guitar 2
C|--00--5~--00-1-0-3-0-5~--00--8-0-7-0-5~------------5~---5~---------|
G|--00--5~--00-1-0-3-0-5~--00--8-0-7-0-5~------------5~---5~---------|
C|--00--5~--00-1-0-3-0-5~--00--8-0-7-0-5~------------5~---5~---------|
F|-------------------------------------------------------------------|x3
A|-------------------------------------------------------------------|
D|-------------------------------------------------------------------|


STARE AND WATCH THE FLOOD, DROVE THE
SINNERS, THE HOPEFULS,
AND SWEEP THEM UNDER THE TIDE!!!!!

Guitar 1
C|--000----------000-------------------------------------------------|
G|--000-1-3-5-3--000-1-3-5-------------------------------------------|
C|--000-x-x-x-x--000-x-x-x-------------------------------------------|
F|------3-5-7-5------3-5-7-------------------------------------------|x2
A|-------------------------------------------------------------------|
D|-------------------------------------------------------------------|

Then..
C|--000-------------000----------------------------------------------|
G|--000-10-12-13-12-000-10-12-13-------------------------------------|
C|--000-x--x--x--x--000-x--x--x--------------------------------------|
F|------12-14-15-14-----12-14-15-------------------------------------|x2
A|-------------------------------------------------------------------|
D|-------------------------------------------------------------------|

After That..
C|--------------------------------------------------------------|
G|-13---15---17---12---10---------------------------------------|
C|-x-x4-x-x4-x-x8-x-x8-x-x8-------------------------------------|
F|-15---17---19---14---12---------------------------------------|x1
A|--------------------------------------------------------------|
D|--------------------------------------------------------------|

Then..
C|--------------------------------------------------------------|
G|-13---15---17---8----5----------------------------------------|
C|-x-x4-x-x4-x-x8-x-x8-x-x8-------------------------------------|
F|-15---17---19---10---7----------------------------------------|x1
A|--------------------------------------------------------------|
D|--------------------------------------------------------------|

Then Out Of No Where
C|--------------------|
G|-5-1-3~-------------|
C|-x-x-x--------------|
F|-7-3-5~-------------|
A|--------------------|
D|--------------------|


I'll up date it later...But this took me like2 hours!!! Just to tab this mo fo!!! Oh 
if someone acually finishs the song message me with it on myspace!!!

www.myspace.com/codsterrrrr
Tap to rate this tab
# A B C D E F G H I J K L M N O P Q R S T U V W X Y Z