Song name
# A B C D E F G H I J K L M N O P Q R S T U V W X Y Z

Underneath The Gun - Reflection Of The Commonwealth tab

Help us improve GuitareTab! Take a short survey!
                     UNDERNEATH THE GUN
                Reflection Of The Common Wealth
                     Forfeit Misfortunes


Intro 0:00

   Face to Face    with yourself   staring back at your own reflection
  D-------------|------------------|-------------------------|
  A-------------|------------------|-------------------------|
  F-------------|------------------|-------------------------|
  C-------------|------------------|-------------------------|
  G-----10--9--7|-------12---10---9|-----12-10-12-13-12-10-12|
  C-8-8---8---8-|-10-10---10----10-|-0-0---0--0--0--0--0--0--|


   Take in the   flood and the     overwhelming thought of infliction
  D-------------|------------------|-------------------------|
  A-------------|------------------|-------------------------|
  F-------------|------------------|-------------------------|
  C-------------|------------------|-------------------------|
  G-----10--9--7|-------12---10---9|-----12-10-12-13-12-10-9-|
  C-8-8---8---8-|-10-10---10----10-|-0-0---0--0--0--0--0--0--|


   every breath   you take in       eliminates every chance you may have
  D-------------|------------------|-------------------------|
  A-------------|------------------|-------------------------|
  F-------------|------------------|-------------------------|
  C-------------|------------------|-------------------------|
  G-----10--9--7|-------12---10---9|-----12-10-12-13-12-10-12|
  C-8-8---8---8-|-10-10---10----10-|-0-0---0--0--0--0--0--0--|


     pushing       everything              to the end!!!!!!!!
  D-------------|------------------|-----------------------------------|
  A-------------|------------------|-----------------------------------|
  F-------------|------------------|-----------------------------------|
  C-------------|------------------|-----------------------------------|
  G-----10--9--7|-------12---10---9|-----12-10-12-13-12-10h12-9h10-7h9-|
  C-8-8---8---8-|-10-10---10----10-|-0-0---0--0--0--0------------------|

   VERSE 0:30
  we are coming undone,you are coming undone,this is coming undone    x3
  D------------------------------------------------------------------------|
  A------------------------------------------------------------------------|
  F------------------------------------------------------------------------|
  C------------------------------------------------------------------------|
  G-0~-------0~------------------------------------------------------------|
  C-0~-0-0-0-0~-0-0-0-5h8-5h8-5h8-5h8--------------------------------------|
Related for Reflection Of The Commonwealth tab