Song name
# A B C D E F G H I J K L M N O P Q R S T U V W X Y Z

Underoath - And I Dreamt Of You Acoustic tab

-------------------------------------------------------------------------------
			     And I Dreamt of You - Underoath
-------------------------------------------------------------------------------
Tabbed by: Brad
Email: Fallofeden522@yahoo.com

Tuning: Drop D (DADGBE)
Here is the acoustic part to Underoath's And I Dreamt of You

X2   Section 1                                                     
e|---------------------------------------------------------------------------|
B|---------------------------------------------------------------------------|
G|-------2-------------2-----------3---------3----------2h3p0----------------|
D|----0-----0-------0-----0-----------0---------0-------------0--------------|
A|---------------------------------------------------------------------------|
D|-0------------0-------------0-----------0---------0------------------------|
x2  Section 2
e|---------------------------------------------------------------------------|
B|---------------------------------------------------------------------------|
G|-------0----------0----------0-------3--------3--------2h3p0---------------|
D|----0-----0----------0---------0-------0--------0------------0-------------|
A|---------------------------------------------------------------------------|
D|-0-----------0----------0---------0-------0-------0------------------------|
x2  Section 3
e|---------------------------------------------------------------------------|
B|---------------------------------------------------------------------------|
G|-------8-----------7----------7-------7------------------------------------|
D|---------5-----------5----------5-------5---------------5-----5----5----5--|
A|--5------------------------------------------------3------3-----3----3----3|
D|--5----------5----------5----------5---------------3--------3-----3----3---|
Then repeat section 2 x4.  Ill have more later.
Tap to rate this tab
 
# A B C D E F G H I J K L M N O P Q R S T U V W X Y Z