Song name
# A B C D E F G H I J K L M N O P Q R S T U V W X Y Z

Underoath - The Only Survivor Was Miraculously Unharmed tab

                        Underoath
        The Only Survivor Was Miraculously Unharmed
  just a starting tab so others make better ones off this
                 Not sure on tim's solo
                   note any mistakes


e-----------        ------------     -----------      ---|
b-----------        ------------     -----------      -6-|
g-----------   x6   -999999----- x1  -----------  x4  -9-|
d-1-1-8-8-0-        -xxxxxx-----     -1-1-8-8-0-      ---|
a-1-1-8-8-0-        -777777-----     -1-1-8-8-0-      ---|
D-1-1-8-8-0-        --------8s0-     -1-1-8-8-0-      ---|

e----------     ---------------     --------------------------|
b----------     -------------6-     --------------------------|
g---------- x8  -99999999999-9-     --------------------------| x4
d----------     -xxxxxxxxxxx---     -0-0-xx-0-0-xx-0-0-xx-0~--|
a----------     -77777777777---     -0-0-xx-0-0-xx-0-0-xx-0~--|
D-1-1-s8p0-     ---------------     -0-0-xx-0-0-xx-0-0-xx-0~--|

e------------------     -------------------------------|
b------------------     -------------------------------|
g------------------     -------------------------------| x2
d-0~-3--5--0~-3--5-     -0000-0000-0000-0000-5555-3333-|
a-0~-3--5--0~-3--5-     -0000-0000-0000-0000-5555-3333-|
D-0~-3--5--0~-3--5-     -0000-0000-0000-0000-5555-3333-|

e------------------------------------|
b------------------------------------|
g------------------------------------|
d------------------------------------|  x2
a---5-3-8---------------5-3-8--------|
D-0-------8------3-5--0-------8--3-5-|

       Key board effects
e-------------|
b-------------|
g-7--9--10-12-|
d-x--x--x--x--|
a-5--7--8--10-|
D-------------|

e------------------------------------|
b------------------------------------|
g------------------------------------|
d------------------------------------|  x2
a---5-3-8---------------5-3-8--------|
D-0-------8------3-5--0-------8--3-5-|

e-------------|
b-------------|
g-7--9--10-12-|
d-x--x--x--x--|  x4
a-5--7--8--10-|
D-------------|
Tap to rate this tab
 
# A B C D E F G H I J K L M N O P Q R S T U V W X Y Z