Song name
# A B C D E F G H I J K L M N O P Q R S T U V W X Y Z

Underoath - Too Bright To See Too Loud To Hear tab

Underoath - Too Bright Too See, Too Loud To Hear

yea so some of the intro tabs are close...but not 100%. this sounds closest to me. if 
want the rest of the tab look at others im not tabbing the rest.

any Q's just email
myspace.com/jmmrtn

They use some sort of delay echo effect here
e--------------------------------------------|
b--------------------------------------------|
g--------------------------------------------|
d-----0------------------12----------0~------|
a---3---------5-------------------3~---------|
d-1--------5----5---10------10--1~-----------|

so i think thats played twice when this comes in on top of first part

e-------------------------------------------|
b-----3------6------6----------3~-----------|
g---3------7----5------------3~-------------|
d-1------5-------------3---1~---------------|
a-------------------------------------------|
d-------------------------------------------|

e------------|
b------------|
g------------|
d------------|
a--3--5------|
d------------|

e-------------------------------------------|
b-----3------6------6----------3~-----------|
g---3------7----5------------3~-------------|
d-1------5-------------3---1~---------------|
a-------------------------------------------|
d-------------------------------------------|

e----------|
b-1--3~----|
g-0--3~----|
d----------|
a----------|
d----------|

so yeah
this song, band and album rule
go buy it
dont limewire it
and yea if you wanna tab the rest and use this intro
go for it just credit me =]
Tap to rate this tab
# A B C D E F G H I J K L M N O P Q R S T U V W X Y Z