Guitaretab - guitar tabs
Song name
# A B C D E F G H I J K L M N O P Q R S T U V W X Y Z

Underoath - Desolate Earth tab

slow part at beginning, listen for rhythm

guitar 1
-------------------------------------|
-------------------------------------|
--------------------------------7----|
------3-------------5----------------|
----1---1---------3---3------5-------|
-1--------1-----3------3---5---------|


guitar 2
-----------------------9--------------|
----7--------9-------7----------------|
---8-8-----8--8-----8-----------------|
--9---9---9----9---9------------------|
--------------------------------------|
--------------------------------------|


upbeat part, listen for rhythm

guitar 1
-------------------------------------|
-------------------------------------|
-3--5--7--10--12---------------------|
-------------------------------------|
-1--3--5--8--10----------------------|
-1--3--5--8--10----------------------|

[ Tab from: http://www.guitaretab.com/u/underoath/115792.html ]
guitar 2
-7-----7--9-----------------------|
-7--9--7--7-----------------------|
-8--8--8--8-----------------------|
-9--9--9--9-----------------------|
----------------------------------|
----------------------------------|

guitars drop out for the crowd chant and clapping.

*still get us home*

guitar 1
-------------------------------|
-------------------------------|
------------3333---------------|
-111-333333-3333---------------|
-111-333333-3333---------------|
-111-333333--------------------|

guitar 2
-777--------9999---------------|
-777-999999-7777---------------|
-888-888888-8888---------------|
-999-999999-9999---------------|
-------------------------------|
-------------------------------|

end on

guitar 1
----
----
----
-1--
-1--
-1--

guitar 2
-----
-7---
-8---
-9---
-----
-----

im not sure if all of this is right.
but hopefully it can give you an idea of the key its in.
Related for Desolate Earth tab
Advertisement will be closed in 10 seconds