Song name
# A B C D E F G H I J K L M N O P Q R S T U V W X Y Z

Underoath - To Whom It May Concern tab

-------------------------------------------------------------------------------
			     To Whom It May Concern - Underoath
-------------------------------------------------------------------------------
Tabbed by: The_scientist
E-Mail: the_scientist_@web.de

Tuning: Drop D

First of all, before you play this tab, you should know that this is just my
version how I play this song. It isn't 100% right and there are different ways to
play it. I just noticed that the other versions are a little bit off the real
song so I tried to hear what the band is really playing. This is my first tab and
I apologize if there's anything wrong. The tab is based on the version 3. Have
fun!


0:00 - 0:24
e|-0-0-0----------8-------0-0-0----------8-----------------------------------|
B|-6-6-6---10-------------6-6-6----8-----------------------------------------|
G|------------7-5---7-5--------------5-7---5-7-------------------------------|
D|---------------------------------------------------------------------------|
A|---------------------------------------------------------------------------|
D|---------------------------------------------------------------------------|

0:25 - 0:49 At this point I'm not that sure. The keyboard and the guitars (one is
played with a bow - confusing) get mixed with each other and it's hard to hear
what is played... I think one of the guitars keeps playing the 6-0 thing on the B
and e string and the other plays this:
e|-8---5--------------------5----------------------------------------|
B|--6---6-----6-5----------------------------------------------------|
G|---7---7-------5------5-7--7-5-7-----------------------------------| 2x
D|-------------------------------------------------------------------|
A|-------------------------------------------------------------------|
D|-------------------------------------------------------------------|

0:50 - 1:01 I have no idea what is played here XD Too much distortion, may this
is the keyboard part at the end
e|-----------------------------------8---------------------------------------|
B|-6-6-6---13-13-13-13-13-13-13-8-6----6-5-----------------------------------|
G|-5-5-5---12-12-12-12-12-12-12-7-5------------------------------------------|
D|---------------------------------------------------------------------------|
A|---------------------------------------------------------------------------|
D|---------------------------------------------------------------------------|

1:02 - 1:13 Again
e|-----------------------------------8-----5---------------------------------|
B|-6-6-6---13-13-13-13-13-13-13-8-6----6-----6-------------------------------|
G|-5-5-5---12-12-12-12-12-12-12-7-5------7-----7-----------------------------|
D|---------------------------------------------------------------------------|
A|---------------------------------------------------------------------------|
D|---------------------------------------------------------------------------|

1:14 - 1:26 Sounds right somehow
e|-------8-------------------5-----------------------------------------------|
B|--10-6------(8)--------6-3----(10)-----------------------------------------|
G|---------------------------------------------------------------------------|
D|---------------------------------------------------------------------------|
A|---------------------------------------------------------------------------|
D|---------------------------------------------------------------------------|

1:27 - 1:39 I guess the last few notes are the bassline but it sounds pretty cool
on the guitar too
e|-------8-------------------------------------------------------------------|
B|--10-6------(8)--------8-10--------(10)------------------------------------|
G|----------------------------7----------------------------------------------|
D|---------------------------------------------------------------------------|
A|---------------------------------------------------------------------------|
D|---------------------------------------------------------------------------|

1:40 - 1:51
e|-------8-------------------5-----------------------------------------------|
B|--10-6------(8)--------6-3----(10)-----------------------------------------|
G|---------------------------------------------------------------------------|
D|---------------------------------------------------------------------------|
A|---------------------------------------------------------------------------|
D|---------------------------------------------------------------------------|

1:52 - 2:03
e|-------8-----------------5-------------------------------------------------|
B|--10-6------(8)--------3---3-------(10)------------------------------------|
G|---------------------------------------------------------------------------|
D|---------------------------------------------------------------------------|
A|---------------------------------------------------------------------------|
D|---------------------------------------------------------------------------|

2:04 - 2:22 Sorry, I really don't have any idea what to play here, it's wrong anyways :P
e|---------------------------------------------------------------------------|
B|--------------3---1------3---1------3----------3---1------3---1------------|
G|--2~~\10----0---2------0---2------0---2~~----0---2------0---2--------------|
D|---------------------------------------------------------------------------|
A|---------------------------------------------------------------------------|
D|---------------------------------------------------------------------------|

2:23 - 2:29
e|-----------------------------------------------------------------|
B|--5-5-5-5-5-5-5-5-6-6-6-6-6-6-6-6--------------------------------|
G|-----------------------------------------------------------------|
D|-----------------------------------------------------------------|
A|-----------------------------------------------------------------|
D|-----------------------------------------------------------------|

2:30 - 2:47 Listen to the pattern carefully
e|-----------------------------------------------------------------|
B|--6-6-6-6-6-6-6-6-8-8-8-8-8-8-8-8--------------------------------|
G|--5-5-5-5-5-5-5-5-7-7-7-7-7-7-7-7--------------------------------| 3x
D|--3-3-3-3-3-3-3-3-5-5-5-5-5-5-5-5--------------------------------|
A|-----------------------------------------------------------------|
D|-----------------------------------------------------------------|

2:48 - 2:53 Let ring at the end
e|-----------------------------------------------------------------|
B|--6-6-6-6-6-6-6-6------------------------------------------------|
G|--5-5-5-5-5-5-5-5------------------------------------------------|
D|--3-3-3-3-3-3-3-3------------------------------------------------|
A|-----------------------------------------------------------------|
D|-----------------------------------------------------------------|

2:54 - 3:18
e|-------------------------------|
B|-------------------------------|
G|-------------------------------|
D|--7\3-0------------------------| Let ring + repeat four times
A|--7\3-0------------------------|
D|--7\3-0------------------------|

3:19 - 3:43
e|-------------------------------|
B|-------------------------------|
G|-------------------------------|
D|--0-0-0------------------------| Mute first two times, let ring last time, repeat 4x
A|--0-0-0------------------------|
D|--0-0-0------------------------|
    x x

3:44 - 4:08 Downpicking
e|---------------------------------------------------------------------------|
B|---------------------------------------------------------------------------|
G|---------------------------------------------------------------------------|
D|--7-7-7-7-7-7-7-7-10-10-10-3-3-2-2-2-0-0-0---------------------------------|
A|--7-7-7-7-7-7-7-7-10-10-10-3-3-2-2-2-0-0-0---------------------------------|
D|--7-7-7-7-7-7-7-7-10-10-10-3-3-2-2-2-0-0-0---------------------------------|
                                       x x

4:09 - 4:21 It's a little bit different - please note that you have to do up- and downpickings
e|---------------------------------------------------------------------------|
B|---------------------------------------------------------------------------|
G|---------------------------------------------------------------------------|
D|--7----------10---------3---------2---------0------------------------------|
A|--7-(16x)----10-(6x)----3-(6x)----2-(2x)----0-(32x)------------------------|
D|--7----------10---------3---------2---------0------------------------------|

4:22 - 4:33 Same thing again, let ring last chord
e|---------------------------------------------------------------------------|
B|---------------------------------------------------------------------------|
G|---------------------------------------------------------------------------|
D|--7----------10---------3---------2---------0------------------------------|
A|--7-(16x)----10-(6x)----3-(6x)----2-(2x)----0------------------------------|
D|--7----------10---------3---------2---------0------------------------------|

Play till end
e|---------------------8-----------------------------------------------------|
B|-----------------------6-----6--5------------------------------------------|
G|-(9)-----(4)\9-10-7------7-------------------------------------------------|
D|---------------------------------------------------------------------------|
A|---------------------------------------------------------------------------|
D|---------------------------------------------------------------------------|


| /  slide up
| \  slide down
| h  hammer-on
| p  pull-off
| ~  vibrato
| +  harmonic
| x  Mute note
===============================================================================
Tap to rate this tab
# A B C D E F G H I J K L M N O P Q R S T U V W X Y Z