Underoath - There Could Be Nothing After This tab

-------------------------------------------------------------------------------
			     THERE COULD BE NOTHING AFTER THIS - Underoath
-------------------------------------------------------------------------------
Tabbed by: Clayton777
Email: 

Tuning:Drop D
    
    LEAD PART
e|-------------------------------------------------------------------------|
B|-------------------------------------------------------------------------|
G|--14--10---12-----14--10---9---------------------------------------------|
D|---x---x----x------x---x---x----------------x2---------------------------|
A|--12---8---10-----12---8---7---------------------------------------------|
E|-------------------------------------------------------------------------|

e|-------------------------------------------------------------------------|
B|-------------------------------------------------------------------------|
G|-------------------------------------------------------------------------|
D|---8\0--8\0--0---7-------------------------------------------------------|
A|---8\0--8\0--0----8--888777333555555-------------------------------------|
E|---8\0--8\0--0-----------------------------------------------------------|

e|-------------------------------------------------------------------------|
B|-------------------------------------------------------------------------|
G|-------------------------------------------------------------------------|
D|---8\0--8\0--0---7-------------------------------------------------------|
A|---8\0--8\0--0----8--888101010777777777----------------------------------|
E|---8\0--8\0--0-----------------------------------------------------------|

  (Just bass here)

e|-------------------------------------------------------------------------|
B|-------------------------------------------------------------------------|
G|---9---2---5-----9---17---15---------------------------------------------|
D|---x---x---x-----x----x----x---------------------------------------------|
A|---7---0---3-----7---15---13---------------------------------------------|
E|-------------------------------------------------------------------------|

e|-------------------------------------------------------------------------|
B|-------------------------------------------------------------------------|
G|--14--10---12-----14--10---9---------------------------------------------|
D|---x---x----x------x---x---x----------------x2--------0~-----------------|
A|--12---8---10-----12---8---7--------------------------0~-----------------|
E|------------------------------------------------------0~-----------------|

e|---0---------------------------------------------------------------------|
B|---4---------------------------------------------------------------------|
G|-------------------------------------------------------------------------|
D|--------0-0-8\---0-0-8\---0-0-8--0-8-7-----------------------------------|
A|--------0-0-8\---0-0-8\---0-0-8--0-8-7-----------------------------------|
E|--------0-0-8\---0-0-8\---0-0-8--0-8-7-----------------------------------|

e|-------------------------------------------------------------------------|
B|-------------------------------------------------------------------------|
G|-------------------------------------------------------------------------|
D|---5~--------------------------------------------------------------------|
A|---5~--------------------------------------------------------------------|
E|---5~--------------------------------------------------------------------|

e|-------------------------------------------------------------------------|
B|-------------------------------------------------------------------------|
G|---7--9--10--12--14---12-------------------------------------------------|
D|---x--x---x---x---x----x-------------------------------------------------|
A|---5--7---8--10--12---10-------------------------------------------------|
E|-------------------------------------------------------------------------|

e|-------------------------------------------------------------------------|
B|-------------------------------------------------------------------------|
G|-------------------------------------------------------------------------|
D|--------------------------------------x2---------------------------------|
A|--12---8---10-----12---8---7---------------------------------------------|
E|-------------------------------------------------------------------------|

   RHYTHM PART
e|-------------------------------------------------------------------------|
B|-------------------------------------------------------------------------|
G|-------------------------------------------------------------------------|
D|---8\0--8\0-0-0-8\0--5---------10----------------------------------------|
A|---8\0--8\0-0-0-8\0--5-x12ish--10--x8------------------------------------|
E|---8\0--8\0-0-0-8\0--5---------10----------------------------------------|

  (Just bass here)

e|-------------------------------------------------------------------------|
B|-------------------------------------------------------------------------|
G|--14--10---12-----14--10---9---------------------------------------------|
D|---x---x----x------x---x---x---------------------------------------------|
A|--12---8---10-----12---8---7---------------------------------------------|
E|-------------------------------------------------------------------------|


e|-------------------------------------------------------------------------|
B|-------------------------------------------------------------------------|
G|-------------------------------------------------------------------------|
D|---0-------7----5---------------------0~---------------------------------|
A|---0-x16---7-x8-5-x8------------------0~---------------------------------|
E|---0-------7----5---------------------0~---------------------------------|

e|---0---------------------------------------------------------------------|
B|---4---------------------------------------------------------------------|
G|-------------------------------------------------------------------------|
D|--------0-0-8\---0-0-8\---0-0-8--0-8-7-----------------------------------|
A|--------0-0-8\---0-0-8\---0-0-8--0-8-7---------then----------------------|
E|--------0-0-8\---0-0-8\---0-0-8--0-8-7-----------------------------------|


e|-------------------------------------------------------------------------|
B|-------------------------------------------------------------------------|
G|-------------------------------------------------------------------------|
D|---5~--------------------------------------------------------------------|
A|---5~--------------------------------------------------------------------|
E|---5~--------------------------------------------------------------------|

e|-------------------------------------------------------------------------|
B|-------------------------------------------------------------------------|
G|-------------------------------------------------------------------------|
D|---0-------5------7------------------------------------------------------|
A|---0-------5------7------------------------------------------------------|
E|---0-------5------7------------------------------------------------------|


************************************

| /   slide up
| \   slide down
| h   hammer-on
| p   pull-off
| ~   vibrato
| +   harmonic
| x   Mute note
| b   Bend
| pb  Pre-bend
| br  Bend release
| pbr Pre-bend release
| brb Bend release bend

************************************
Tap to rate this tab
 
# A B C D E F G H I J K L M N O P Q R S T U V W X Y Z