Song name
# A B C D E F G H I J K L M N O P Q R S T U V W X Y Z

Underoath - Paper Lung tab

Song: Paper Lung
Band: Underoath
Album: O (Disambiguation)
Tuning: Drop B

Enjoy the tab and rate and comment please!

Intro/Verse 0:16 - 0:47
Guitar joins with this.
|----------------------------------------------------------|
|---------15----------13-------------15-----------13-------|
|-----10--------------------------10-----------------------|
|------------12-12-12--------------------12-12-12-------14-| 2x
|----------------------------------------------------------|
|----------------------------------------------------------|

For the verse, just strum these chords while listening for when to switch.
0:47 - 1:16
|-------------|      |-------------|
|-----15------|      |-----13------|
|-----14------|      |-----12------|
|-----12------|      |-----12------|
|-------------|      |-------------|
|-------------|      |-------------|

Chorus (Repeat)
1:16-1:45
|-------------------------------------------------------------------|
|-------------------------------------------------------------------|
|-------------------------------------------------------------------|
|---5-5-5-5-5-5-5-5-5-5-5-5-5-5-5-5-8-8-8-8-8-8-8-8-8-8-8-8-8-8-8-8-|
|---5-5-5-5-5-5-5-5-5-5-5-5-5-5-5-5-8-8-8-8-8-8-8-8-8-8-8-8-8-8-8-8-|
|---5-5-5-5-5-5-5-5-5-5-5-5-5-5-5-5-8-8-8-8-8-8-8-8-8-8-8-8-8-8-8-8-|

|-------------------------------------------------------------------|
|-------------------------------------------------------------------|
|-------------------------------------------------------------------|
|---0-0--0-0--0--0-0--0---0-0--0-0--0--0-0--0-----------------------|
|---0-0--0-0--0--0-0--0---0-0--0-0--0--0-0--0-----------------------|
|---0-0--0-0--0--0-0--0---0-0--0-0--0--0-0--0-----------------------|

Verse 2
1:45 - 2:15
Play around with this for the first part of this verse.
|-------------------------------------------------------------------|
|-------------------------------------------------------------------|
|---7-10-9-10-9-------5-2---5-2-3-2---------------------------------|
|-------------------------------------------------------------------|
|-------------------------------------------------------------------|
|-------------------------------------------------------------------|

Now play this till the chorus. Palm mute.
2:15 - 2:30
|---------------------------------|
|---------------------------------|
|---10-10-10-10-10-10-10-10-------|
|---12-12-12-12-12-12-12-12-------|
|---------------------------------|
|---------------------------------|

Chorus (Repeat)
2:30 - 3:00
|-------------------------------------------------------------------|
|-------------------------------------------------------------------|
|-------------------------------------------------------------------|
|---5-5-5-5-5-5-5-5-5-5-5-5-5-5-5-5-8-8-8-8-8-8-8-8-8-8-8-8-8-8-8-8-|
|---5-5-5-5-5-5-5-5-5-5-5-5-5-5-5-5-8-8-8-8-8-8-8-8-8-8-8-8-8-8-8-8-|
|---5-5-5-5-5-5-5-5-5-5-5-5-5-5-5-5-8-8-8-8-8-8-8-8-8-8-8-8-8-8-8-8-|

|-------------------------------------------------------------------|
|-------------------------------------------------------------------|
|-------------------------------------------------------------------|
|---0-0--0-0--0--0-0--0---0-0--0-0--0--0-0--0-----------------------|
|---0-0--0-0--0--0-0--0---0-0--0-0--0--0-0--0-----------------------|
|---0-0--0-0--0--0-0--0---0-0--0-0--0--0-0--0-----------------------|

Bridge
Play this one more time.
3:00 - 3:07
|-------------------------------------------------------------------|
|-------------------------------------------------------------------|
|-------------------------------------------------------------------|
|---0-0--0-0--0--0-0--0---0-0--0-0--0--0-0--0-----------------------|
|---0-0--0-0--0--0-0--0---0-0--0-0--0--0-0--0-----------------------|
|---0-0--0-0--0--0-0--0---0-0--0-0--0--0-0--0-----------------------|

3:07 - 3:14
Strum fast.
|-------------------|
|-------------------|
|---2------2--------|
|---2-(32x)-0-(32x)-|
|---0------1--------|
|-------------------|

3:14 - 3:36
|-------------------------------------------|
|-------------------------------------------|
|-------------------------------------------|
|---0-0-0--00-8-8-8-8--0-0-0--00--7---------| 2x
|---0-0-0--00-10101010-0-0-0--008-----------|
|---0-0-0--00----------0-0-0--00------------|

|------------------------------------------------------------------|
|------------------------------------------------------------------|
|---2-2-2-2-2-2-2-3-3-3-3-2-2-2-2-2-2-2-2-2-2-2-2-2-2-2-2-2-2-2-2--|
|---2-2-2-2-2-2-2-2-2-2-2-2-2-2-2-0-0-0-0-0-0-0-0-0-0-0-0-0-0-0-0--|
|---0-0-0-0-0-0-0-0-0-0-0-0-0-0-0-1-1-1-1-1-1-1-1-1-1-1-1-1-1-1-1--|
|------------------------------------------------------------------|

|-------------------------------------------|
|-------------------------------------------|
|-------------------------------------------|
|---0-0-0--00-8-8-8-8--0-0-0--00--7---------| 2x
|---0-0-0--00-10101010-0-0-0--008-----------|
|---0-0-0--00----------0-0-0--00------------|

Solo
3:36 - 3:51
|------------------------------------------------------------------|
|---15------18--17---15------17--18---18--17---18--17----20----21--|
|-------14---------------14----------------------------------------|
|------------------------------------------------------------------|
|------------------------------------------------------------------|
|------------------------------------------------------------------|

Chorus/Breakdown
This time play the chorus differently.
3:51 - 4:11
|-----------------|---------------------------|
|-----------------|---------------------------|
|---2------2------|-9/--------9/--------------|
|---2-(16x)-0-(16x)|-8/--0--0--8/--0--0-------| 4x
|---0------1------|-10/-0--0--10/-0--0--------|
|-----------------|-8/--0--0--8/--0--0--------|

|-----------------------------------|
|-----9/----------9/--------9/------|
|-----8/--0--x-x--8/--0--0--8/------|
|-----10/-0--x-x--10/-0--0--10/-----|
|-----8/--0--x-x--8/--0--0--8/------|

That's it! Enjoy and remember to rate and comment!
Tap to rate this tab
 
# A B C D E F G H I J K L M N O P Q R S T U V W X Y Z