Song name
# A B C D E F G H I J K L M N O P Q R S T U V W X Y Z

Underoath - Who Will Guard The Guardians tab

----------------------------------------------------
      Who Will Guard The Guardians - Underoath
----------------------------------------------------
Tabbed by: Kristyn Lee
Email: spot_the_village_loony_836@hotmail.com

Tuning: Drop D

Intro
guitar 1
e|------------------|
B|------------------|
G|------------------|
D|------------------|
A|------------------|
D|---0~~---0h3~-----|
guitar 2
e|----------------------------------------------------------------|
B|----------------------------------------------------------------|
G|----------0~-----0~------0~------0~----0~-----0~----0~-----0~---|
D|------0-------0------0-------0------0------0------0------0------|
A|----------------------------------------------------------------|
D|---0~~----------------------------------------------------------|

0:21
guitar 1
e|----------13-----12----12------10--------|
B|---6///15-----15----15-----13------------|
G|-----------------------------------------|
D|-----------------------------------------|
A|-----------------------------------------|
D|-----------------------------------------|

e|------13-----12----12------------------------------|
B|---15-----15----15-----1010101010101010------------|
G|---------------------------------------------------|
D|---------------------------------------------------|
A|---------------------------------------------------|
D|---------------------------------------------------|

"built by machines..."
guitar 1
e|------------------|
B|------------------|
G|------------------|
D|------------------|
A|------------------|
D|---0~~---0h3~-----|
guitar 2
e|----------------------------------------------------------------|
B|----------------------------------------------------------------|
G|----------0~-----0~------0~------0~----0~-----0~----0~-----0~---|
D|------0-------0------0-------0------0------0------0------0------|
A|----------------------------------------------------------------|
D|---0~~----------------------------------------------------------|

0:46
Both Guitars
e|---------------------------------------------------------|
B|---------------------------------------------------------|
G|---------------------------------------------------------|
D|---------------------------------------------------------|
A|---xxxxxx--0-0-0-0--5^--0-0-0-0--5^--5-3-3-3--8-7-1-1----|
D|---xxxxxx--0-0-0-0------0-0-0-0------5-3-3-3--8-7-1-1----|

play this x3
e|---------------------------------------------------------|
B|---------------------------------------------------------|
G|---------------------------------------------------------|
D|---------------------------------------------------------|
A|----0-0-0-0--5^--0-0-0-0--5^--5-3-3-3--8-7-1-1-----------|
D|----0-0-0-0------0-0-0-0------5-3-3-3--8-7-1-1-----------|

1:08
guitar 2   x16
e|---------------------------|
B|------6----5---------------|
G|----7----7-----------------|
D|---------------------------|
A|---------------------------|
D|---------------------------|
1:19
guitar 1   play x2
  x8                x8
e|------------|------------------------|
B|--------6---|---10-------------------|
G|----7-7-----|------7-----------------|
D|------------|------------------------|
A|------------|------------------------|
D|------------|------------------------|

1:52
guitar 2
         x4            x2
e|---------------|--------------|-----------------------------|
B|------10---10--|--------------|-----------------13/15-------|
G|---7-----7-----|------7----9--|------10----9----------12----|
D|---------------|---10---10----|---/12---12---12-------------|
A|---------------|--------------|-----------------------------|
D|---------------|--------------|-----------------------------|

2:03   guitar 1 starts playing the riff above but in a different order
starting with the 2nd part i think. Then there are some other parts but
they're hard to hear.

2:57
e|------------------|
B|-----10---10------|
G|---7----7---------|
D|------------------|
A|------------------|
D|------------------|

3:08
Guitar 1
           t           t          t         t
e|------------------------------------------------|
B|---------18----------17---------13--------15----|
G|---------x-----------x----------x---------x-----|
D|---2/////15----------14---------10--------12----|
A|------------------------------------------------|
D|------------------------------------------------|
Guitar 2    x2
e|-----------------------------------------------|
B|-----------------------------------------------|
G|-----------------------------------------------|
D|-----------------------------------------------|
A|---0000-0000-0000-0000-0000-0000-5333-8711-----|
D|---0000-0000-0000-0000-0000-0000-5333-8711-----|

3:30   both guitars   x2
e|-------------------------------------------|
B|-------------------------------------------|
G|----------7*--------7*---------------------|
D|-------------------------------------------|
A|----0-0-0-----0-0-0------5-3-3-3/8p7-1-1---|
D|----0-0-0-----0-0-0------5-3-3-3/8p7-1-1---|

end with this
e|-----------|
B|-----------|
G|-----------|
D|-----------|
A|---0~~-----|
D|---0~~-----|


************************************

| /   slide up
| \   slide down
| h   hammer-on
| p   pull-off
| ~   vibrato
| *   harmonic
| x   Mute note
| b   Bend
| pb  Pre-bend
| br  Bend release
| pbr Pre-bend release
| brb Bend release bend

************************************
Tap to rate this tab
 
# A B C D E F G H I J K L M N O P Q R S T U V W X Y Z