Song name
# A B C D E F G H I J K L M N O P Q R S T U V W X Y Z

Underoath - Vacant Mouth tab

----------------------------------------------------------------
		 Vacant Mouth - Underoath
----------------------------------------------------------------
Tabbed by: Kristyn Lee
Email: spot_the_village_loony_836@hotmail.com

Tuning: Drop D

strum really fast  
0:00 - 0:12       0:12     0:23
e|------------|---------|------------|
B|------------|---------|------------|
G|---14-------|---19----|---17-------|
D|----x-------|----x----|---x--------|
A|---12-------|---17----|---15-------|
D|------------|---------|------------|

Verse
  "i took this picture..."
e|-----------------------|
B|-----------------------|
G|---7---5---10-10\5-----|
D|---x---x---x--x-x------|
A|---5-0-3---8--8-\3-----|
D|-----0---0---0---------|
   "spinning in lights..."
e|-------------------------------0----0--------|
B|-------------------------------0----0--------|
G|---7---5---10-10~--------------0----0--------|
D|---x---x---x--x-----7------------------------|
A|---5-0-3---8--8~--------xxx--0----0----------|
D|-----0---0---0----8-----xxx--0----0---3-2----|
 "you don't know what i've seen..."
e|-----------------------|
B|-----------------------|
G|---7---5---10-10\5-----|
D|---x---x---x--x-x------|
A|---5-0-3---8--8-\3-----|
D|-----0---0---0---------|
 "the youth is so hollow and so are we..."
e|---------------------------0---0-------|
B|---------------------------0---0-------|
G|---7---5/10-5--------------0---0-------|
D|---x---x-x--x-----7--------------------|
A|---5-0-3/8--3--------xxx-0---0---------|
D|-----0----------8----xxx-0---0---3-2---|


   "this is what it feels like..."
e|-------------------------------------|
B|-------------------------------------|
G|-------------------------------------|
D|-------------------------------------|
A|---5555------------------------------|
D|-------00000000000000000000000000----|
   "this is disintegration...
e|---------------------------------------|
B|---------------------------------------|
G|---------------------------------------|
D|---------------------------------------|
A|---------------------------------------|
D|---88888888888888883333333333333333----|

   "this is what it feels like..."
e|-------------------------------------|
B|-------------------------------------|
G|-------------------------------------|
D|-------------------------------------|
A|---5555------------------------------|
D|-------00000000000000000000000000----|
   "this is isolation..."
e|---------------------------------------|
B|---------------------------------------|
G|---------------------------------------|
D|---------------------------------------|
A|---------------------------------------|
D|---88888888888888883333333333333333----|

1:00
Chorus   
  "i can't find the light..."
e|------------------------------|
B|---3-1-3-1-3-1-3--33333333----|
G|---2-2-2-2-2-2-2--22222222----|
D|---0-0-0-0-0-0-0--33333333----|
A|---0-0-0-0-0-0-0--11111111----|
D|---0-0-0-0-0-0-0--------------|
 "inside this empty room..."
e|------------------------------|
B|---3-1-3-1-3-1-3--33333333----|
G|---2-2-2-2-2-2-2--22222222----|
D|---0-0-0-0-0-0-0--33333333----|
A|---0-0-0-0-0-0-0--11111111----|
D|---0-0-0-0-0-0-0--------------|
  "I can't find the light..."
e|---------------------------------|
B|---3333333333333333--33333333----|
G|---2222222222222222--22222222----|
D|---0000000000000000--33333333----|
A|---0000000000000000--11111111----|
D|---0000000000000000--------------|
  "i won't let you down..."
e|---------------------------------|
B|---3333333333333333--33333333----|
G|---2222222222222222--22222222----|
D|---0000000000000000--33333333----|
A|---0000000000000000--11111111----|
D|---0000000000000000--------------|
1:24
e|---------------------|
B|---------------------|
G|----77777777777^^^---|
D|---------------------|
A|---------------------|
D|---------------------|
      .......

Repeat verse

end the 2nd verse with this
e|-------------0---------------------------|
B|-------------0---------------------------|
G|-------------0---------------------------|
D|-------7---------------------------------|
A|-------------------3-3333333-------------|
D|----8-----0----3p0-3-3333333-------------|
                       ...
---------------------------------------------------------------------------
1:48           Repeat this twice
e|-----------------------------------------|
B|-----------------------------------------|
G|-----------1414141414141414--------------|
D|-----------x-x-x-x-x-x-x-x---------------|
A|-----------1212121212121212-0-3p2p0------|
D|---0-0-0-0------------------0-3p2p0------|

e|--------------------------------------|
B|--------------------------------------|
G|--------7-7/14h15p14\7-7-7/10---------|
D|--------------------------------------|
A|---888--------------------------------|
D|---888--------------------------------|

e|----------------------------------------|
B|----------------------------------------|
G|-----------1414141414141414-------------|
D|-----------x-x-x-x-x-x-x-x--------------|
A|-----------1212121212121212-0-3p2p0-----|
D|---0-0-0-0------------------0-3p2p0-----|

e|----------0----------------------|
B|----------0----------------------|
G|----------7----------------------|
D|---------------------------------|
A|---8-8-8----8p7p0-8p7p0-0--------|
D|---8-8-8----8p7p0-8p7p0-0--------|
       .
---------------------------------------------------------------------------
2:12                              add some of these
e|--------------------------------|---0---0---0---|
B|--------------------------------|---0---0---0---|
G|--------------------------------|---7---7---7---|
D|--------------------------------|---------------|
A|---8p7p0h5h7-8p7p0h5h7-0h8h10---|---------------|
D|---8p7p0h5h7-8p7p0h5h7-0h8h10---|---------------|

2:21    tremolo
e|--------------------------------------|
B|--------------------------------------|
G|----14-------12------10-------5-------|
D|-----x-------x-------x--------x-------|
A|----12-------10------8--------3-------|
D|--------------------------------------|
2:45  tremolo
e|----------------|
B|----------------|
G|---5------------|
D|---x------------|
A|---3------------|
D|----------------|

Repeat Chorus

3:15
e|----------------------------------------------|
B|----------------------------------------------|
G|------7777777777777777-5555555555555555-------|
D|------xxxxxxxxxxxxxxxx-xxxxxxxxxxxxxxxx-------|
A|---0--5555555555555555-3333333333333333-------|
D|---0------------------------------------------|

"so write this down..."
e|----------------|
B|----------------|
G|----------------|
D|----------------|
A|---000-8~-0~----|
D|---000-8~-0~----|
     ...         
"i'm not using my lungs anymore..."
e|-------------------------|
B|-------------------------|
G|-------------------------|
D|-------------------------|
A|---0-33-0-33---888-0~~---|
D|---0-33-0-33---888-0~~---|

"this is the last time, write it down..."
e|-------------------------------|
B|-------------------------------|
G|-------------------------------|
D|-------------------------------|
A|-------8--0~-------------------|
D|-------8--0~-------------------|

  "i won't be your voice anymore..."
e|-------------------------------------|
B|-------------------------------------|
G|-------------------------------------|
D|-------------------------------------|
A|---0-3-3-----8--0~-----0-33-0-33-----|
D|---0-3-3-----8--0~-----0-33-0-33-----|
     .                   .    .
The End

************************************

| .   palm mute
| /   slide up
| \   slide down
| h   hammer-on
| p   pull-off
| ~   vibrato
| +   harmonic
| x   Mute note
| b   Bend
| pb  Pre-bend
| br  Bend release
| pbr Pre-bend release
| brb Bend release bend

************************************
Tap to rate this tab
# A B C D E F G H I J K L M N O P Q R S T U V W X Y Z