Song name
# A B C D E F G H I J K L M N O P Q R S T U V W X Y Z

Underoath - Paper Lung tab

-------------------------------------------------------------------------------
                             SONG NAME - Band Name
-------------------------------------------------------------------------------
Tabbed by: OrangeJ (J, Omar)
E-mail: Omar_fallout2007@hotmail.com

This is an amazing song off Disambiguation, Ive seen or heard that this song is
played in Drop B and well Underoath may indeed play it in that tuning but this is
a tab on standard that sounds just like it.
Any comments, corrections, questions or etc. just email me. Enjoy!

Tuning: EADGBE
                                   INTRO
e|----------------------------------------------------------------------|
B|----------------------------------------------------------------------|
G|-0----0------0--------------------------------------------------------|
D|--4----4------4--0~---------------------------------------------------|
A|2----2---0--2-------4~--0h2-------------------------------------------|
E|-----------------------------(0~)-------------------------------------|
                               ^^ hammer on 2 & E|0 optional, verse begins at the 0h2)

                       VERSE  [The verse is just this repeated until the chorus]
e|---7------5-------------------------------------------------------|
B|\6--7-7-7----\6---------------------------------------------------|
G|------------------------------------------------------------------|
D|-----------------------999999999999-------------------------------|
A|-----------------------999999999999-------------------------------|
E|-----------------------777777777777/0-0-2-0-2--0-2-0-2------------|
                                ^^Optional palm muted strumming(x12)
                                Listen to the song carefully during the verse.



        CHORUS[play twice. strumming is 12 strums each]
e|------------------------------------------------------------------|
B|555555555555/888888888888-----------------------------------------|
G|444444444444/777777777777-----------------------------------------|
D|222222222222/555555555555------444444444444--444444444444---------|
A|---------------------------------444444444444--444444444444-------|
E|---------------------------------222222222222--222222222222-------|


      2nd VERSE[play riff till chorus picks up again]
e|------------------------------------------------------------------|
B|------------------------------------------------------------------|
G|/7-6~---/7-6~--4--2-----------------------------------------------|
D|-----------------4--4---------------------------------------------|
A|------------------------------------------------------------------|
E|------------------------------------------------------------------|


          2nd CHORUS[play twice. strumming is 12 strums each]
e|------------------------------------------------------------------|
B|555555555555/888888888888-----------------------------------------|
G|444444444444/777777777777-----------------------------------------|
D|222222222222/555555555555------444444444444--444444444444---------|
A|---------------------------------444444444444--444444444444-------|
E|---------------------------------222222222222--222222222222-------|
 (Last time chorus is played before breakdown play the (E|2/A|2/D|2) riff 2 more times)

                                             BREAKDOWN
e|---------------------------------------------------------------|
B|---------------------------------------------------------------|
G|---------------------------------------------------------------|
D|444444444444444455555555555555554444-55555555555555555---------|
A|222222222222222222222222222222222222-22222222222222222---------|
E|-----------------------------------------3333333333333333------|

e|------------------------------------------------------------------|
B|------------------------------------------------------------------|
G|444--444--444--444------------------------------------------------|
D|444--444--444--444------------------------------------------------|
A|222--222--222--222------------------------------------------------|
E|------------------------------------------------------------------|

e|---------------------------------------------------------------|
B|---------------------------------------------------------------|
G|---------------------------------------------------------------|
D|444444444444444455555555555555554444-55555555555555555---------|
A|222222222222222222222222222222222222-22222222222222222---------|
E|-----------------------------------------3333333333333333------|

e|------------------------------------------------------------------|
B|------------------------------------------------------------------|
G|444--444--444--444------------------------------------------------|
D|444--444--444--444------------------------------------------------|
A|222--222--222--222------------------------------------------------|
E|------------------------------------------------------------------|

THEN STILL BREAKDOWN, THE 1ST BREAKDOWN RIFF IS PLAYED IN BACKGROUND
AND THIS IS THE LEAD:

e|7777777777777p5-555555555555--7777777777777p5-555--7/9-99999-------|
B|-------------------------------------------------------------------|
G|-------------------------------------------------------------------|
D|-------------------------------------------------------------------|
A|-------------------------------------------------------------------|
E|-------------------------------------------------------------------|

e|10-9-7-10-9-7-10/12-121212121212121212121212-141414141414141414b14b14b--|
B|------------------------------------------------------------------------|
G|------------------------------------------------------------------------|
D|------------------------------------------------------------------------|
A|------------------------------------------------------------------------|
E|------------------------------------------------------------------------|


                                                 OUTRO
e|------------------------------------------------------------------|
B|------------------------------------------------------------------|
G|------------------------------------------------------------------|
D|11-9999---11--99999999-------------------------11-----------------|
A|9--9999----9--99999999--------------------------9-----------------|
E|---7777-------77777777--------------------------------------------|
play all this 4 times and end the song on this the last time ^^

thats it folks. hope you guys enjoy this and can help you learn this amazing
song by Underoath, again anything just email me and ill get back to you promptly.



************************************

| /   slide up(from fret 1-24)
| \   slide down(from fret 24-1)
| h   hammer-on
| p   pull-off
| ~   vibrato
| +   harmonic
| x   Mute note
| b   Bend
| pb  Pre-bend
| br  Bend release
| pbr Pre-bend release
| brb Bend release bend

************************************
Tap to rate this tab
# A B C D E F G H I J K L M N O P Q R S T U V W X Y Z