Song name
# A B C D E F G H I J K L M N O P Q R S T U V W X Y Z

Underoath - Its A Dangerous Business Walking Out Your Front Door tab

x-silent
p-palm-mute

I changed it so you can play both guitars.

00:00
E|--------------------------------------------------------------------------|
B|--------------------------------------------------------------------------|
G|-------9-9-9--------------------------------------------------------------|
D|7-7-7--x-x-x--------------------------------------------------------------|
A|7-7-7--7-7-7--------------------------------------------------------------|
D|7-7-7---------------------------------------------------------------------|

00:02
E|--------------------------------------------------------------------------|
B|--------------------------------------------------------------------------|
G|------9-9-9-9-9-9-9-9-9--------9-9-9-9-9-9-9-9-9-------5-5-5-5-5-5-5-5-5--|
D|7-7-7-x-x-x-x-x-x-x-x-x--7-7-7-x-x-x-x-x-x-x-x-x-3-3-3-x-x-x-x-x-x-x-x-x--|
A|7-7-7-7-7-7-7-7-7-7-7-7--7-7-7-7-7-7-7-7-7-7-7-7-3-3-3-3-3-3-3-3-3-3-3-3--|
D|7-7-7--------------------7-7-7-------------------3-3-3--------------------|

E|--------------------------------------------------------------------------|
B|--------------------------------------------------------------------------|
G|--------------------------------------------------------------------------|
D|0-0-0-0-0-0-5-5-5-5-5-5---------------------------------------------------|
A|0-0-0-0-0-0-5-5-5-5-5-5---------------------------------------------------|
D|0-0-0-0-0-0-5-5-5-5-5-5---------------------------------------------------|

00:29
E|--------------------------------------------------------------------------|
B|--------------------------------------------------------------------------|
G|--------------------------------------------------------------------------|
D|7p-7p-7p-7p-7p-7p-7p-7p-7-------------------------------------------------|
A|7p-7p-7p-7p-7p-7p-7p-7p-7-------------------------------------------------|
D|7p-7p-7p-7p-7p-7p-7p-7p-7-------------------------------------------------|

00:44 this part is actually played on keyboards, i changed it over
E|--------------------------------------------------------------------------|
B|--------------------------------------------------------------------------|
G|--------------------------------------------------------------------------|
D|10-10-10-10-10-10-10-10-10-10-10-10-10-10-10-10---------------------------|
A|------------------------------------------------8-8-8-8-8-8-8-8-----------|
D|--------------------------------------------------------------------------|

E|-------------------------------------------------------------------------|
B|-------------------------------------------------------------------------|
G|-------------------------------------------------------------------------|
D|-------------------------------------------------------------------------|
A|10-10-10-10-10-10-10-10--------------------------------------------------|
D|-------------------------------------------------------------------------|
  4 times

01:13
E|--------------------------------------------------------------------------|
B|--------------------------------------------------------------------------|
G|--------------------------------------------------------------------------|
D|7-7-7-7-7-7---------------------------------------------------------------|
A|7-7-7-7-7-7---------------------------------------------------------------|
D|7-7-7-7-7-7---------------------------------------------------------------|
  a bunch of times

01:41 (chorus)
E|--------------------------------------------------------------------------|
B|--------------------------------------------------------------------------|
G|--------------------------------------------------------------------------|
D|7-7-7-7-7-7-7-7-7-7-7-7-7-7-7-7-3-3-3-3-3-3-3-3-5-5-5-5-5-5-5-5-----------|
A|7-7-7-7-7-7-7-7-7-7-7-7-7-7-7-7-3-3-3-3-3-3-3-3-5-5-5-5-5-5-5-5-----------|
D|7-7-7-7-7-7-7-7-7-7-7-7-7-7-7-7-3-3-3-3-3-3-3-3-5-5-5-5-5-5-5-5-----------|
  4 times

02:09
E|--------------------------------------------------------------------------|
B|10-10-10-8-8-8-10-10-10-8-8-8-10-10-10-8-8-8-10-10-10-8-8-8---------------|
G|--------------------------------------------------------------------------|
D|--------------------------------------------------------------------------|
A|--------------------------------------------------------------------------|
D|--------------------------------------------------------------------------|

E|--------------------------------------------------------------------------|
B|10-10-10-8-8-8-10-10-10-8-8-8-10-10-10-8-8-8-10-10-10-8-8-8---------------|
G|--------------------------------------------------------------------------|
D|--------------------------------------------------------------------------|
A|--------------------------------------------------------------------------|
D|--------------------------------------------------------------------------|

02:52
E|--------------------------------------------------------------------------|
B|--------------------------------------------------------------------------|
G|--------------------------------------------------------------------------|
D|7-7-7-----7-7-7-----3-3-3-----0-0-0-0-0-0-5-5-5-5-5-5---------------------|
A|7-7-7-----7-7-7-----3-3-3-----0-0-0-0-0-0-5-5-5-5-5-5---------------------|
D|7-7-7-----7-7-7-----3-3-3-----0-0-0-0-0-0-5-5-5-5-5-5---------------------|

03:07
E|--------------------------------------------------------------------------|
B|--------------------------------------------------------------------------|
G|------9-9-9-9-9-9-9-9-9--------9-9-9-9-9-9-9-9-9-------5-5-5-5-5-5-5-5-5--|
D|7-7-7-x-x-x-x-x-x-x-x-x--7-7-7-x-x-x-x-x-x-x-x-x-3-3-3-x-x-x-x-x-x-x-x-x--|
A|7-7-7-7-7-7-7-7-7-7-7-7--7-7-7-7-7-7-7-7-7-7-7-7-3-3-3-3-3-3-3-3-3-3-3-3--|
D|7-7-7--------------------7-7-7-------------------3-3-3--------------------|

E|--------------------------------------------------------------------------|
B|--------------------------------------------------------------------------|
G|--------------------------------------------------------------------------|
D|0-0-0-0-0-0-5-5-5-5-5-5---------------------------------------------------|
A|0-0-0-0-0-0-5-5-5-5-5-5---------------------------------------------------|
D|0-0-0-0-0-0-5-5-5-5-5-5---------------------------------------------------|

03:20(chorus)
E|--------------------------------------------------------------------------|
B|--------------------------------------------------------------------------|
G|--------------------------------------------------------------------------|
D|7-7-7-7-7-7-7-7-7-7-7-7-7-7-7-7-3-3-3-3-3-3-3-3-5-5-5-5-5-5-5-5-----------|
A|7-7-7-7-7-7-7-7-7-7-7-7-7-7-7-7-3-3-3-3-3-3-3-3-5-5-5-5-5-5-5-5-----------|
D|7-7-7-7-7-7-7-7-7-7-7-7-7-7-7-7-3-3-3-3-3-3-3-3-5-5-5-5-5-5-5-5-----------|
  4 times

03:50
E|--------------------------------------------------------------------------|
B|--------------------------------------------------------------------------|
G|--------------------------------------------------------------------------|
D|7-------------------------------------------------------------------------|
A|7-------------------------------------------------------------------------|
D|7-------------------------------------------------------------------------|
Tap to rate this tab
# A B C D E F G H I J K L M N O P Q R S T U V W X Y Z