Song name
# A B C D E F G H I J K L M N O P Q R S T U V W X Y Z

Underoath - Short Of Daybreak tab

im not sure on a couple of parts but its better than what the other dude has.

its drop D so..


  |----------------------------------------------------
  |----------------------------------------------------
  |-----7/9-9-10--------7/9-9-10-9---------------------
  |-0-------------0-0---------------8--7--0-0-0--0-0-0-
  |-0---5/7-7-8---0-0---5/7-7-8--7--8--7--0-0-0--0-0-0-
  |-0-------------0-0---------------8--7--0-0-0--0-0-0-
PM                .                       . . .  . . .
           if your any good youll - ^  ^
           know how many times to
           strum these         


  (0:32)

  |-----------------------------------------------------|
  |-----------------------------------------------------|
  |---------------(4x)----------------------------------|
  |000000---000000----0------3-1-0--2-1-0--3-1-0--2-1-0-|
  |000000---000000----0--5~--3-1-0--2-1-0--3-1-0--2-1-0-|
  |000000---000000----0------3-1-0--2-1-0--3-1-0--2-1-0-|
PM ......   ...... Wrong ^   . . .  . . .  . . .  . . .


  (0:50)

  |------------------------------------------| This is what the other tabs 
  |------------------------------------------|  said.. i dont know, its 
  |------------------------------------------|  wrong though.
  |00000-77-00000-55-00000-33-00000-55-------|  0 < End with
  |00000-77-00000-55-00000-33-00000-55-------|  0
  |00000-77-00000-55-00000-33-00000-55-------|  0
PM .....    .....    .....    .....             .
  


  
  |----------------------|
  |----------------------|(2x)
  |-10-9--5--7--4/5--4--2|
  |-x--x--x--x--x-x--x--x|
  |-8--7--3--5--2/3--2--0|
  |----------------------|




  (1:22)

  Rhythm   
  |------------------------------------------------|
  |------------------------------------------------|
  |---------(4x)-----------------------------------|
  |0000-0000-----0000-0000-0000-0000--0000----0000-|
  |0000-0000-----0000-0000-0000-0000--0000----0000-|
  |0000-0000-----0000-0000-0000-0000--0000----0000-|

  (con't)
PM
  |-----------------------------------------------|
  |-----------------------------------------------|
  |-----------------------------------------------|
  |-0------------0000-0000-0000-0000--------------|
  |-0------------0000-0000-0000-0000--------------|
  |-0------------0000-0000-0000-0000--------------|
PM
  Lead
  |-----------------------------------------------|
  |-----------------------------------------------|
  |-10-9-10-12-10-9------10-9-10-14-12-10---------|
  |-----------------------------------------------|
  |-8--7-8--10-8--7------8--7-8--12-10-8----------|
  |-----------------------------------------------|


  (1:53) 
  
   (6x the first time)
  |-|--------------|------------------------------------|x3
  |-----------------(4x)--------------------------------|
  |-10---------------------------------------------(2x)-|
  |----8-7--10--8-7-------000-0-0-0-10------------------|
  |-----------------------000-0-0-0----8-7--10-8-7------|
  |-----------------------000-0-0-0---------------------|
PM                        ...   .

  
  
  |-------------------------------------------|
  |-------------------------------------------|
  |-------------------------------------------|
  |-8---5-----------------000-0-0-0-000-0-0-0-|
  |-8---5-----------------000-0-0-0-000-0-0-0-|
  |-8---5-----------------000-0-0-0-000-0-0-0-|
PM                        ...   .   ...   .  
    ^   ^
        |if your any good youll 
           know how many times to
           strum these 

  (2:21)                        
  End with this
  |------------------------|
  |----------------(4x)----|
  |-10---------------------|
  |----8-7--10-8-7------0--|
  |---------------------0--|
  |---------------------0--|


  
  |------------------------|
  |------------------------|
  |------------------------|
  |-8--------5----------0--|
  |-8--------5----------0--|
  |-8--------5----------0--|
    ^        ^
   However you want to strum them



  thats it i guess. most is right for sure.

  brought to you by Chris Mo Fuckin Rosales
Tap to rate this tab
# A B C D E F G H I J K L M N O P Q R S T U V W X Y Z