Song name
# A B C D E F G H I J K L M N O P Q R S T U V W X Y Z

Underoath - Never Meant To Break Your Heart tab

e|-------------------------------------|
b|-------------------------------------|
g|-9-9---------10-10-10-10-10-10-10-10-|
d|-x-x----------x--x--x--x--x--x--x--x-|
a|-7-7-7-8-7-8--8--8--8--8--8--8--8--8-|
D|-----7-8-7-8-------------------------|

|-----------------------------------------------|
|-----------------------------------------------|
|-----------------------------------------------|
|-----------------------------------------------|
|-0-0-0-0--0-0-0-0-0-0-0-0-0-0-0-0-0-0-0--7-5-8-|
|-0-0-0-0--0-0-0-0-0-0-0-0-0-0-0-0-0-0-0--7-5-8-|x4

|------------------------------------|
|------------------------------------|
|----12/11-12-11-9/11/9---12/11-14/9-|
|-----x/-x--x--x-x/-x/x----x/-x--x/x-|
|-0--10/-9-10--9-7/-9/7-0-10/-9-12/7-|
|-0---------------------0------------|

|-------------------------------------------------|
|-------------------------------------------------|
|-9-9-9-9-9-9/11-11-11-11-11-11/12-12-12-12-12-12-|
|-x-x-x-x-x-x/-x--x--x--x--x--x/-x--x--x--x--x--x-|
|-7-7-7-7-7-7/-9--9--9--9--9--9/10-10-10-10-10-10-|x2
|-------------------------------------------------|

|-7-7-7-7-7-7-7-5-5-5-5-5-5-5-3-3-3-3-3-3-3-|
|-0-0-0-0-0-0-0-0-0-0-0-0-0-0-0-0-0-0-0-0-0-|
|-0-0-0-0-0-0-0-0-0-0-0-0-0-0-0-0-0-0-0-0-0-|
|-0-0-0-0-0-0-0-0-0-0-0-0-0-0-0-0-0-0-0-0-0-|
|-7-7-7-7-7-7-7-5-5-5-5-5-5-5-3-3-3-3-3-3-3-|
|-------------------------------------------|

|------------------------------------------------------------------|
|------------------------------------------------------------------|
|------------------------------------------------------------------|
|------------------------------------------------------------------|
|-10-10-10-10-10-10-10-7-7-7-7-7-7-7-9-9-9-9-9-9-9-5-5-5-5-5-5-5-5-|x2
|------------------------------------------------------------------|

|---------|
|---------|
|-12/9/11-|
|--x/x/-x-| x4
|-10/7/-9-|
|---------|

Guitar 1
|---------------------------|
|---------------------------|
|---------------------------|
|---------------------------|
|-15-----15-----15----17----|
|-----13----13-----13----13-|

Guitar 2
|-----------------------------|
|-----------------------------|
|-----------------------------|
|-----------------------------|
|-8(x16)-5(x16)-3(x16)-7(x16)-|
|-8(x16)-5(x16)-3(x16)-7(x16)-|
pm...........................

|------------------------------------------|
|------------------------------------------|
|------7---------8---------7---------12----|
|---10---10---10---10---10---10---10----10-|x6
|-8---------8---------8---------8----------|
|------------------------------------------|

|---------------------------------------------------|
|---------------------------------------------------|
|-12-12-12-12-12-12-12-12-10-10-10-10-9-9-9-9/10/12-|
|--x--x--x--x--x--x--x--x--x--x--x--x-x-x-x-x/-x--x-| x4
|-10-10-10-10-10-10-10-10--8--8--8--8-7-7-7-7/-8/10-|
|---------------------------------------------------|

|-------------------------------------------|
|-------------------------------------------|
|-12-12------10-10------9-9------10-10------|
|--x--x-------x-x-------x-x-------x-x-------|x4
|-10-10-0-0-0-8-8-0-0-0-7-7-0-0-0-8-8-0-0-0-|
|-------0-0-0-----0-0-0-----0-0-0-----0-0-0-|
Tap to rate this tab
 
# A B C D E F G H I J K L M N O P Q R S T U V W X Y Z