Song name
# A B C D E F G H I J K L M N O P Q R S T U V W X Y Z

Underoath - Lets Start Over tab

intro 
|-2---10---5---12------2---10---5---12--|
|-2---10---5---12------2---10---5---12--|
|-2---10---5---12------2---10---5---12--|
|---------------------------------------|
|---------------------------------------|
|---------------------------------------|     
(slidepickupstring) verse1\verse2
|-222-(pm)-1010-(pm)-555-(pm)-1212--------------|
|-222-(pm)-1010-(pm)-555-(pm)-1212--------------|
|-222-(pm)-1010-(pm)-555-(pm)-1212--------------| repeatx2 for verse1  
|---------------------------------10-9-7-5------| repeatx2 for verse2
|---------------------------------12-11-9-7-----|
|-----------------------------------------------|
(chorus)repeatx2                         ending chorus   
|-2---10---5---12---2---10---5---12--| |-2---10---5---12-|
|-2---10---5---12---2---10---5---12--| |-2---10---5---12-|
|-2---10---5---12---2---10---5---12--| |-2---10---5---12-| repeat x2
|------------------------------------| |-----------------|
|------------------------------------| |-----------------|
|------------------------------------| |-----------------|
Tap to rate this tab
 
# A B C D E F G H I J K L M N O P Q R S T U V W X Y Z