Song name
# A B C D E F G H I J K L M N O P Q R S T U V W X Y Z

Underoath - There Could Be Nothing After This tab

none of the other tabs seem right so here how i play it
guitar 1 &2
|-----------------------------|------------------------------|
|-----------------------------|------------------------------|
|-14-------10------12---------|-14-------10------9-----------|
|-x--(x8)-x--(x8)-x--(x8)----|-x--(x16)-x--(x8)-x-(x8)-------| x2
|-12-------8-------10---------|-12-------8-------7-----------|
|-----------------------------|------------------------------|
|-----------------------------|------------------------------|

|-----------------------------|----------------------------|
|-----------------------------|----------------------------|
|-----------------------------|----------------------------|
|-----------------------------|----------------------------|
|-----------------------------|----------------------------|
|-----------------------------|----------------------------|
|-7h5-0-0-7h5-0-0-07h5--0-0---|----12-7-7--9-9-7-----------|

|-----------------------------|-------------------7-----------|
|-----------------------------|-------------------5-------3---|
|-----------------------------|-------------------------------|
|-----------------------------|-------------------------------|
|-----------------------------|-------------------------------|
|-----------------------------|-------------------------------|
|-7h5-0-0-7h5-0-0-07h5--0-0---|-8-7--8-8-8--0-0---------------|

|-----7--------7---------7----|----------------------------|
|-----5--------5---------5----|----------------------------|
|-----------------------------|----------------------------|
|-----------------------------|----------------------------|
|-0---------------------------|----------------------------|
|-0---------------------------|----------------------------|
|-0------0-8-7---0-8-7-7------|----------------------------|

|-----------------------------|----------------------------|
|-----------------------------|----------------------------|
|-----------------------------|----------------------------|
|-----------------------------|----------------------------|
|-0--00--00--000--00----------|----------------------------|
|-0--00--00--000--00----------|----------------------------|
|-0--00--00--000--00----------|----------------------------|

|-----------------------------|----------------------------|
|-----------------------------|----------------------------|
|-----------------------------|----------------------------|
|--7----5-----7-----5---------|-7777--5555-----777777------|
|-----------------------------|----------------------------|
|-----------------------------|----------------------------|
|-----------------------------|----------------------------|
nobody even added this part?
|-----------------------------|----------------------------|-------|
|-----------------------------|----------------------------|-------|
|-----------------------------|----------------------------|-------|
|-----------------------------|----------------------------|-------| X4
|0-0-0-0-0--0-0-0-0-0--6666---|--------------77777779999333|--2----|
|0-0-0-0-0--0-0-0-0-0--6666---X2------------|77777779999333|-------|
|0-0-0-0-0--0-0-0-0-0--6666-----------------|77777779999333|-3--3--|
Tap to rate this tab
# A B C D E F G H I J K L M N O P Q R S T U V W X Y Z