Song name
# A B C D E F G H I J K L M N O P Q R S T U V W X Y Z

Underoath - In Regards To Self tab

-------------------------------------------------------------------------------
			     In Regards to Self - Underoath
-------------------------------------------------------------------------------
Tabbed by: Vijay Patel
Email:

Tuning: Drop-D down half a step



  Intro (x2)- Guitar 1
  Time- 00:04
E|---------------0-----------------------------------------------|
B|---------------6-----------------------------------------------|
G|-----------------------------10--x-x-10------------------------|
D|------------------------------x--x-x--x------------------------|
A|----7p0-----------------------8--x-x--8------------------------|
D|-0------3---5h0------5/10--0------------3bp0--2-(pick slide)---|


  Verse (4x) - Both Guitars
  Time- 00:12
E|---------------0---------------------------------|
B|---------------6---------------------------------|
G|-----------------------------10--x-x-10----------|
D|------------------------------x--x-x--x----------|
A|----7p0-----------------------8--x-x--8----------|
D|-0------3---5h0------5/10--0------------3bp0--2--|
  
  
  Pre Chorus - Both Guitars (harmonics between 1st and 2nd fret)
  Time- 00:31
E|-------------------------------------|
B|-------------------------------------|
G|-------------------------------------|
D|-0--0-----0--0-----0--0-----0--0-----|
A|-0--0-----0--0-----0--0-----0--0-----|
D|-0+-0-2b--0+-0-2b--0+-0-2b--0+-0-2b--|

  Guitar 2
  Time- 00:43
E|--------------------------------------------------------|
B|--------------------------------------------------------|
G|--------------------------------------------------------|
D|--------------------------------------------------------|
A|-0-xx-0-xx-----0-xx-0-xx-----0-xx-0-xx-----0-xx-0-xx----|
D|-0-xx-0-xx-2b--0-xx-0-xx-2b--0-xx-0-xx-2b--0-xx-0-xx-2b-|

  Guitar 1
  Time- 00:43	
E|----------------------------------|
B|----------------------------------|
G|----9--9/10/9----9--9/10/9--------|
D|--7------------7-----------7/8/7--|
A|----------------------------------|
D|----------------------------------|

  
  Both Guitars
  Time- 00:56
E|----------------------------------|
B|----------------------------------|
G|----------------------------------|
D|-1--7--0--------------------------|
A|-1--7--0--------------------------|
D|-1--7--0--------------------------|

 
  Chorus (x4) - Guitar 1  (listen to song for the rhythm)
  Time- 00:59
E|----------------------------------|
B|----------------------------------|
G|--8--14--10-----------------------|
D|--x--x---x------------------------|
A|--6--12--8------------------------|
D|----------------------------------|

  Guitar 2
E|----------------------------------|
B|----------------------------------|
G|--14-14-10------------------------|
D|--x--x--x-------------------------|
A|--12-12-8-------------------------|
D|----------------------------------|


  Verse - Both Guitars
  Time - 01:22
E|-------------------------------------|
B|-------------------------------------|
G|------10-------------9b--------------|
D|------x--------------x---------------|
A|------8--------------7b--------------|
D|-3p2-----3-3-2-3-3-0-----3-2-3-3-2-0-|

E|--------------------------------------------|
B|--------------------------------------------|
G|------10-------------9b---------------------|
D|------x--------------x----------------------|
A|------8--------------7b---------------------|
D|-3p2-----3-3-2-3-3-0-----3-2-3-3-2-0---12\2-|

E|-------------------------------------|
B|-------------------------------------|
G|------10-------------9b--------------|
D|------x--------------x---------------|
A|------8--------------7b--------------|
D|-3p2-----3-3-2-3-3-0-----3-2-3-3-2-0-|

E|---------------------------------------|
B|---------------------------------------|
G|------10-------------9b----------------|
D|------x--------------x-----------------|
A|------8--------------7b---------------0|
D|-3p2-----3-3-2-3-3-0-----3-2-3-3-2-0--0|


  Pre Chorus - Guitar 1
  Time- 01:48
E|----------------------------------|
B|----------------------------------|
G|-14---14--------------------------|
D|-x----x---------------------------|
A|-12---12--------------------------|
D|----------------------------------|

  Guitar 2
  Time- 01:53
E|----------------------------------|
B|----------------------------------|
G|----------------------------------|
D|-0--------------------------------|
A|-0--------------------------------|
D|-0--------------------------------|

  
  Chorus- Guitar 1 (listen for rhythm)
  Time- 01:58
E|------------------------------------------|
B|------10------10------10------10----------|
G|-10---x---10--x---10--x---10--x--14-12-10-|
D|--x---7---x---7---x---7---x---7--x--x--x--|
A|--8-------8-------8-------8------12-10-8--|
D|------------------------------------------|
  
  Guitar 2
E|---------------------------------------|
B|---------------------------------------|
G|--10--14--10-14--10-14--10-14-10--10-9-|
D|--x---x---x--x---x--x---x--x--x---x--x-|
A|--8---12--8--12--8--12--8--12-8---8--7-|
D|---------------------------------------|

  
  Bridge - both guitars
  Time- 02:26  (listen for rhythm)
E|----------------------------------|
B|----------------------------------|
G|--9--10-9---------9---------------|
D|--x--x--x--1--7---x--1--7---------|
A|--7--8--7--1--7---7--1--7---------|
D|-----------1--7------1--7---------|
  
  Outro (x8)- both guitars
  Time- 02:41
E|----------------------------------|
B|----------------------------------|
G|----------------------------------|
D|----------------------------------|
A|-1--7--0--------------------------|
D|-1--7--0--------------------------|


| /  slide up
| \  slide down
| h  hammer-on
| p  pull-off
| ~  vibrato
| +  harmonic
| x  Mute note
===============================================================================
Tap to rate this tab
# A B C D E F G H I J K L M N O P Q R S T U V W X Y Z