Guitaretab - guitar tabs
Song name
# A B C D E F G H I J K L M N O P Q R S T U V W X Y Z

Underoath - Simac Tague tab

-------------------------------------------------------------------------------
			     Simac Tague - Underoath
-------------------------------------------------------------------------------
Tabbed by:jarrod
Email:portraythedead12@yahoo.com

this is the last song on the "theyre only chasing safety" special edition cd. this is my 
tab so plzz tell me how i did. by the way this is also the same guitar parts for "some 
seek forgiveness, others escape"
i also put the time in there to

Tuning:DADGBe
[ Tab from: http://www.guitaretab.com/u/underoath/76671.html ]
intro:  00:00 - 00:42
e|--------2-0----------------------------------------------------------------|
B|-------------------X32-----------------------------------------------------|
G|-4/2-----------------------------------------------------------------------|
D|---------------------------------------------------------------------------|
A|---------------------------------------------------------------------------|
D|---------------------------------------------------------------------------|
Chorus: 00:42 - 1:04
e|-5-------5-----------------------------------------------------------------|
B|--------------------5-----------5----------7-------------------------------|
G|-----7---------7-----------7---------7-----------7-------X5----------------|
D|---------------------------------------------------------------------------|
A|---------------------------------------------------------------------------|
D|---------------------------------------------------------------------------|
intro again 1:04 - 1:52
e|--------2-0----------------------------------------------------------------|
B|---------------------------------------------------------------------------|
G|-4/2-------------------------X36-------------------------------------------|
D|---------------------------------------------------------------------------|
A|---------------------------------------------------------------------------|
D|---------------------------------------------------------------------------|

1:52 - 2:35
then u do chorus put strumming it and sliding still same thing tho
e|--5-------5----------------------------------------------------------------|
B|---------------------5-------5---------7------7----------------------------|
G|-------7---------7---------7-------7-------7----7--------------------------|
D|---------------------------------------------------------------------------|
A|---------------------------------------------------------------------------|
D|---------------------------------------------------------------------------|
well thats pretty much it, but theres two guitars in here and i dint tab the other on. 
only doing a couple little things ne ways. so good luck

www.myspace.com/pooonany

| /  slide up
| \  slide down
| h  hammer-on
| p  pull-off
| ~  vibrato
| +  harmonic
| x  Mute note
===============================================================================
Related for Simac Tague tab
Simac Tague chords by Underoath