Song name
# A B C D E F G H I J K L M N O P Q R S T U V W X Y Z

Underoath - Returning Empty Handed tab

Help us improve GuitareTab! Take a short survey!
-------------------------------------------------------------------------------
                   Returning Empty Handed - UnderOath
-------------------------------------------------------------------------------
Tabbed by: Colin Rich (Viciousgray)
Email: colin.rich@massart.edu

Tuning: Drop D (DADGBe)

Intro


Yo this is my first tab and my favorite song.  Thats it.

Guitar 1
e|---------------------------------------------------------------------------|
B|---------------------------------------------------------------------------|
G|-7~---9~---12~--10~--------------------------------------------------------|
D|-x----x----x-----x---------------------------------------------------------|
A|-5~---7~---10~---8~--------------------------------------------------------|
D|---------------------------------------------------------------------------|

Guitar 2
e|---------------------------------------------------------------------------|
B|---------------------------------------------------------------------------|
G|---------------------------------------------------------------------------|
D|-0~------------------------------------------------------------------------|
A|-0~------------------------------------------------------------------------|
D|-0~------------------------------------------------------------------------|

"How Peaceful it Feels"

Guitar 2
e|----------------------------------------------------------------------------------------------|
B|----------------------------------------------------------------------------------------------|
G|----------------------------------------------------------------------------------------------|
D|-8\-0-0---8\-0-0-0---8\-0-0-------7p0-----------8-0-0---8\-0-0-0---8\-0-0-------7p0-----------|
A|-8\-0-0---8\-0-0-0---8\-0-0-----------8p0-------8-0-0---8\-0-0-0---8\-0-0-----------8p0-------|
D|-8\-0-0---8\-0-0-0---8\-0-0---/8----------0h3~--8-0-0---8\-0-0-0---8\-0-0---/8----------0h3~--|

Guitar 1- this part I'm really not sure about because its so faint, but I tried, but I 
what seemed to make the most sense.  Email me if you want me to make some corrections or something.
e|-------------------------------------------------------------------------------|
B|-------------------------------------------------------------------------------|
G|-------------------------------------------------------------------------------|
D|------------------------------------------------------------------7p0----------|
A|-1p0--5h7p0--3p0-0--1p0--5h7p0--3p0-0--3p0-0--1p0--5h7p0--3p0--/8-----8p0------|
D|--------------------------------------------------------------------------0h3--|

"You've brought me here for THIS?!?"

Guitar 1 (guitar 2 isn't playing)
e|----------------------------------------------------------0~--------|
B|----------------------------------------------------------6\5-------|
G|--------------------------------------------------------------------|
D|-2p0-------------2p0----------------2p0-----------------------------|x2
A|--------------------------------------------------------------------|
D|-----3p0-3p0-0-------3p0-3p0-0-3p0------3p0-3p0-0--3/8-0------------|

"...WITH ME!"

Both Guitars
e|----------------------------------------------------------------------------------------|
B|--------------------------------------------------------------------------------------6-|
G|--------------------------------------------------------------------------------------9-|
D|-8\-0-0---8\-0-0-0---8\-0-0-------7p0-----------8-0-0---8\-0-0-0---8\-0-0---8\-0-0--x---|
A|-8\-0-0---8\-0-0-0---8\-0-0-----------8p0-------8-0-0---8\-0-0-0---8\-0-0---8\-0-0--x---|
D|-8\-0-0---8\-0-0-0---8\-0-0---/8----------0h3~--8-0-0---8\-0-0-0---8\-0-0---8\-0-0--x---|

Still Both Guitars

e|-------------------------------------------|
B|----------------------------------------6--|
G|----------------------------------------9--|
D|-8\-0-0---8\-0-0-0---8\-0-0---8\-0-0--x----|x2
A|-8\-0-0---8\-0-0-0---8\-0-0---8\-0-0--x----|
D|-8\-0-0---8\-0-0-0---8\-0-0---8\-0-0--x----|

Right after "...as fast as it leaves"

Guitar 1

e|------------------------------------------------------|
B|---0-6-0----0-6-0----0-6-0----0-6-0----0-6-0----0-6-0-|
G|-9---9----9---9----9---9----9---9----9---9----9---9---|
D|------------------------------------------------------|
A|------------------------------------------------------|
D|------------------------------------------------------|

Guitar 2- this is digitally looped or something, but I'm guessing this is how they would 
it live.

e|---0/13-----0/13-----0/13-----0/13-----0/13-----0/13--|
B|------------------------------------------------------|
G|------------------------------------------------------|
D|------------------------------------------------------|
A|------------------------------------------------------|
D|------------------------------------------------------|

Guitar 1

e|----------------------|
B|----------------------|
G|--12-(x8)---10-(x8)---|
D|---x---------x--------|
A|--10---------8--------|
D|----------------------|

Guitar 2

e|----------------------|
B|----------------------|
G|----------------------|
D|--5-(x8)-----3-(x8)---|
A|--5----------3--------|
D|--5----------3--------|

"Now my eyes flash with WHITE"

Both Guitars- I personally like to play this using powerchords instead of single notes 
the low D string, but I think this is how it's played on the record.

e|---------------------------------------------------|
B|-----5-------5------------5-------5------------5---|
G|-----8-------8------------8-------8------------8---|
D|---------------------------------------------------|
A|---------------------------------------------------|
D|--0-----5-7-0---5h7-3h5-0----5-7-0---5h7-0h3-0-----|

"Here again and again..."

Guitar 1
e|-----------------------------|
B|-----------------------------|
G|--9-(x16)--5-(x8)--12-(x8)---|
D|--x--------x-------x---------|
A|--7--------3-------10--------|
D|-----------------------------|

Guitar 2
e|-----------------------------|
B|-----------------------------|
G|-----------------------------|
D|--7-(x16)--3-(x8)--10-(x8)---|
A|--7--------3-------10--------|
D|--7--------3-------10--------|

"The floor is more fitting for my face"

Both Guitars (listen to song for actual rhythm)
e|-------------------------|
B|-------------------------|
G|-------------------------|
D|-0--00--0-0--00000--0-0--|x2
A|-0--00--0-0--00000--0-0--|
D|-0--00--0-0--00000--0-0--|

"Here again?  Here again?  This is getting old"

Both guitars(?)- the last strike is muted almost immediately after it is hit.
e|----------------------|
B|-6----6----6----6-----|
G|-9----9----9----9-----|
D|-0----0----0----0---0-|
A|-0----0----0----0---0-|
D|-0----0----0----0---0-|

"Here again?  Here again?  I'm being watched.  This is overwhelming"

Guitar 1-(not sure on this part)
e|--------------------------------|   |-----------------------------0-|
B|--------------------------------|   |-----------------------------4-|
G|--------------------------------|   |-------------------------------|
D|--------------------------------|x3 |-------------------------------|
A|--0h5h7p0-3p0-0-0h5h7p0-3p0-0-3-|   |-0h5h7p0-3p0-0-0h5h7p0-3p0-0---|
D|--------------------------------|   |-------------------------------|

Guitar 2
e|-------------------------|
B|-------------------------|
G|-------------------------|
D|-0--00--0-0--00000--0-0--|x2
A|-0--00--0-0--00000--0-0--|
D|-0--00--0-0--00000--0-0--|

Guitar 1- syncs up with Guitar 2 on the dissonant note only.  All the rest is distorted 
until the end where an 8th fret A string/10th fret G string octave bleeds into the next 
before its struck again at the beginning of the verse.

Guitar 2-
e|--------------------------------------|
B|------6-------------------------------|
G|------9-------------------------------|
D|--------------------------------------|
A|--00-----00--00------00-----00--00----|
D|--00-----00--00------00-----00--00----|

Guitar 1
e|------------------------------------------|
B|------------------------------------------|
G|-10~-------9~------10~--------------------|
D|--x--------x--------x-------------8888888\|
A|--8~-------7~-------9~------------8888888\|
D|----------------------------------8888888\|

Guitar 2
e|------------------------------------------|
B|------------------------------------------|
G|--------------------7~-------9~-----------|
D|-0~--------0~-------x--------x----8888888\|
A|-0~--------0~-------5~-------7~---8888888\|
D|-0~--------0~---------------------8888888\|

McTague uses a reverb petal of some sort here, so each note is struck three times and 
for a while.  Guitar 2 is absent.

"As you dig your feet in I will sink my teeth into the floor"

Guitar 1
e|---15~------12~--------------------------|
B|---------------------13~-----------------|
G|------------------------------14~--12~---|
D|-----------------------------------------|
A|-----------------------------------------|
D|-----------------------------------------|

"As the light begins to breach the border"

Guitar 1-play each chord very fast many times
e|---------------------------------------------------------------------------|
B|---------------------------------------------------------------------------|
G|---22-------21-------19-------17-------22-------21-------17-------14-------|
D|----x--------x--------x--------x--------x--------x--------x--------x-------|
A|---20-------19-------17-------15-------20-------19-------15-------12-------|
D|---------------------------------------------------------------------------|

Guitar 2
e|--------------------------------------|
B|--------------------------------------|
G|--------------------------------------|
D|---7-(x16)-10-(x16)--5-(x25)--8-(x7)--|
A|---7-------10--------5--------8-------|
D|---7-------10--------5--------8-------|

Closing verses

"Aware of every step"

Part 1

Both guitars
e|------------------------------------|
B|------------------------------------|
G|------------------------------------|
D|-0-0---00-0-00--10-10-10-10-10-10---|x2
A|-0-0---00-0-00--10-10-10-10-10-10---|
D|-0-0---00-0-00--10-10-10-10-10-10---|

Guitar 1
e|----------------------------------------------------|
B|----------------------------------------------------|
G|-9-(x6)-11-(x6)-14-(x12)-12-(x6)-7-(x6)-------------|
D|-x-------x-------x--------x------x------------------|
A|-7-------9------12-------10------5----------/7--3~--|
D|-----------------------------------------3----------|

Guitar 2
e|--------------------------------|
B|--------------------------------|
G|--------------------------------|
D|-7-(x24)---5-(x12)--------------|
A|-7---------5------------/7--3~--|
D|-7---------5---------3----------|

Part 2

Both guitars
e|------------------------------------|
B|------------------------------------|
G|------------------------------------|
D|-0-0---00-0-00--10-10-10-10-10-10---|x2
A|-0-0---00-0-00--10-10-10-10-10-10---|
D|-0-0---00-0-00--10-10-10-10-10-10---|

Guitar 1
e|-----------------------------------------------|
B|-----------------------------------------------|
G|--9-(x6)-10-(x6)-12-(x12)-14-(x12)-------------|
D|-----------------------------------------------|
A|--7-------8------10-------12-----------/7--3~--|
D|------------------------------------3----------|

Guitar 2
e|--------------------------------|
B|--------------------------------|
G|--------------------------------|
D|-7-(x24)---5-(x12)--------------|
A|-7---------5------------/7--3~--|
D|-7---------5---------3----------|

Guitars one and two play that twice more (part 1, part 2, part 1, part 2, end).

Guitar 3-(played over the last part 1/part 2 verse)-played really fast many times.
e|----------------------|
B|----------------------|
G|--22----17----14------|
D|----------------------|
A|--20----15----12------|
D|----------------------|

I THINK there's a fourth guitar track playing over the other three on the very last 
2", but its too faint for me to figure out.

Yeah, so basically I think this is probably the closest tab to the actual song out there 
now.  Email me if you got some comments or corrections because I need this sheezy to be perfect.

Word.

| /  slide up
| \  slide down
| h  hammer-on
| p  pull-off
| ~  vibrato
| +  harmonic
| x  Mute note
===============================================================================
Related for Returning Empty Handed tab