Song name
# A B C D E F G H I J K L M N O P Q R S T U V W X Y Z

Undertones - True Confessions tab

VERSE:
e||--------------------------------------------------------------------------||
B||--------------------------------------------------------------------------||
G||--------------------------------------------------------------------------||
D||10-10-10-10-10-10-10-10/3-10-10-10-10-10-10-10-10/-3----------------------||
A||10-10-10-10-10-10-10-10/3-10-10-10-10-10-10-10-10/-3----------------------||
E||8--8--8--8--8--8--8--8/-1--8--8--8--8--8--8--8--8/-1----------------------||
 Play this 4 times as your intro. This continues up to the chorus.

CHORUS:
e||----------------------------------------------------------------------||
B||----------------------------------------------------------------------||
G||----------------------------------------------------------------------||
D||5-5-5-5-5-10-10-10----------------------------------------------------||
A||5-5-5-5-5-10-10-10----------------------------------------------------||
E||3-3-3-3-3--8--8--8----------------------------------------------------||

Play twice. Listen to song for strumming pattern

Sorry i got the bar chord mixed up in my forst tab. this is the correct way 100% sure :) enjoy
Tap to rate this tab
# A B C D E F G H I J K L M N O P Q R S T U V W X Y Z