Song name
# A B C D E F G H I J K L M N O P Q R S T U V W X Y Z

Undertones - Crisis Of Mine tab

Intro and riff
e-----------------------|
B-----------------------|
G-----------------------|
D--------7-6-7----------|
A----6------------------|
E 7---7-----------------|
x6
then
e----------------------|
B----------------------|
G----------------------|
D-------5-4-5----------|
A---4------------------|
E5----5----------------|
x2

Thats basically the whole song anyway
Any questions ChrisKenToye@hotmail.com
Tap to rate this tab
 
# A B C D E F G H I J K L M N O P Q R S T U V W X Y Z