Song name
# A B C D E F G H I J K L M N O P Q R S T U V W X Y Z

Undertones - Casbah Rock tab

Band - The Undertones
Song - Casbah Rock
Album - The Undertones

Tabbed By: SumFX (Tyler Freear)

Funny Little Song, Last Track On Their Great Debut!

|-----66------66-|
|-88--66--88--66-|
|-88--77--88--77-|
|-88--88--88--88-|
|-66--88--66--88-|
|-----66------66-|

|-----66------------|
|-88--66--88--1010--|
|-88--77--88--1010--|
|-88--88--88--1010--| x6
|-66--88--66--8-8---|
|-----66------------|

|-66----------------|
|-66-88-1010-888----|
|-77-88-1010-888----| x4 Fade Out
|-88-88-1010-888----|
|-88-66-8-8--666----|
|-66----------------|


Nothing More To Be Said Really!

Rate & Comment Please
Tap to rate this tab
# A B C D E F G H I J K L M N O P Q R S T U V W X Y Z