Song name
# A B C D E F G H I J K L M N O P Q R S T U V W X Y Z

Undertones - Really Really tab

Band - The Undertones
Song - Really Really
Album - Undertones

Tabbed By: SumFX (Tyler Freear)

Cool Song By The Undertones As Usual!

/ = Pick Scrape

Intro
|-9999101010101212121210101010--|-999910101010999910101010-|
|-------------------------------|--------------------------|
|-------------------------------|--------------------------|
|-------------------------------|--------------------------|
|-------x2----------------------|-------x2-----------------|
|-------------------------------|--------------------------|

Verse
Part 1 x6    Part 2 x1
|-555-------|---------------|
|-555--777--|-999999999999--|
|-666--777--|-999999999999--|
|-777--777--|-999999999999--|
|-777--555--|-777777777777--|
|-555-------|---------------|

Chorus
|-9999101010101212121210101010-|
|------------------------------|
|------------------------------|
|------------------------------|
|------------------------------|
|------------------------------|

Lead Line
|-----------------------|-------------|
|-4--4-2-0--5-5-2-0-2-0-|--7-7-4-4-2--|
|-----------------------|-------------|
|-----------------------|-------------|
|-----x3----------------|-------------|
|-----------------------|-------------|

Bridge
|-----------7--7-7-7----------------------------|
|-7---------7--7-7-7----7---------999999999999--|
|-7---------8--8-8-8----7---------999999999999--|
|-7---------9--9-9-9----7---------999999999999--|
|-5--/////--9--9-9-9----5--/////--777777777777--|
|-----------7--7-7-7----------------------------|

Structure

Intro
Verse
Chorus
Verse
Lead Line
Chorus
Bridge
Verse
Lead Line
Chorus

Simple!
Rate & Comment Please!!!
Tap to rate this tab
# A B C D E F G H I J K L M N O P Q R S T U V W X Y Z