Song name
# A B C D E F G H I J K L M N O P Q R S T U V W X Y Z

Undertones - Crisis Of Mine tab

Intro and riff
e-----------------------|
B-----------------------|
G-----------------------|
D--------7-6-7----------|
A----6------------------|
E 7---7-----------------|
x6
then
e----------------------|
B----------------------|
G----------------------|
D-------5-4-5----------|
A---4------------------|
E5----5----------------|
x2
Then the chorus goes like this

e-----------|
B-----------|
G-----------|
D-----2-2-1-|
A---1-------|
E-2---------|

then as it goes ba ck to the verse it goes

e----------------|
B----------------|
G----------------|
D----------------|
A---6--------4---|
E-7---7----5---5-|

Then during the part after verse 2 play

e-------------------|
B-------------------|
G-------------------|
D----------19-18-19-|
A----18-------------|
E-19----19----------|

And yes the main riff is the same as in the first version, but I wrote that aswell
Tap to rate this tab
# A B C D E F G H I J K L M N O P Q R S T U V W X Y Z