Song name
# A B C D E F G H I J K L M N O P Q R S T U V W X Y Z

Undertones - Here Comes The Summer tab

-----------------------------------------------------------------------------
			     here comes the summer- the undertones
-------------------------------------------------------------------------------

Tabbed By : steve
e-mail: allchavsrgay

Tuning:eadg

intro
G|---------------------|
D|---------------------|
A|----------5-5-7-7-7--|
E|--5-5-2-2------------|

verse
G|------------------------------------------------------------------|
D|------------------------------------------------------------------|
A|------------------------------------------------------------------|
E|-5-5-5-5-5-5-5-5-2-2-2-2-2-2-2-2-5-5-5-5-5-5-5-5-0-0-0-0-0-0-0-0--|

G|------------------------------------------------------------------|
D|------------------------------------------------------------------|
A|---------------------------------5-5-5-5-5-5-5-5-7-7-7-7-7-7-7-7--|
E|-5-5-5-5-5-5-5-5-2-2-2-2-2-2-2-2----------------------------------|

chorus
G|---------------------------------|
D|---------------------------------|
A|---------------------------------|
E|-5-5-5-5-2-2-2--0-0-0-0-0-0-0-0--|

backing
G|------------------------------------------------------------------|
D|------------------------------------------------------------------|
A|-4-4-4-4-4-4-4-4-0-0-0-0-0-0-0-0-4-4-4-4-4-4-4-4-0-0-0-0-0-0-0-0--|
E|------------------------------------------------------------------|

G|------------------------------------------------------------------|
D|------------------------------------------------------------------|
A|-4-4-4-4-4-4-4-4-2-2-2-2-2-2-2-2-0-0-0-0-0-0-0-0-2-2-2-2-2-2-2-2--|
E|------------------------------------------------------------------|



order:
intro   X 2
verse   X 1
chorus  X 3
verse   X 1
chorus  X 3
backing X 1   (backing for solo)
chorus  X 3
verse   X 1
chorus  X keep playing until fades out
Tap to rate this tab
 
# A B C D E F G H I J K L M N O P Q R S T U V W X Y Z