Song name
# A B C D E F G H I J K L M N O P Q R S T U V W X Y Z

Undertones - More Songs About Chocolate And Girls tab

-------------------------------------------------------------------------------
More Songs About Chocolate and Girls - Undertones
-------------------------------------------------------------------------------
Tabbed by: r8dburn
Email: jamesredburn@googlemail.com

Tuning: standard

GUITAR 1: Plays on the intro and throughout all the verses with simple variations. Only 
the first slide the first time on the intro.
e|---------------------------------------------------------------------------|
B|---------------------------------------------------------------------------|
G|------------------------------0---1----------------------------------------|
D|---------------------3---4-------------------------------------------------|
A|--16\4---4-------4--------------------------4/6----4/6---------------------|
E|-------------------------------------4---4---------------------------------|

GUITAR 2: Not too sure about these chords but sound basically right. Join in after the 
same thing every verse.
e|--4---4--------------------------------------------------------------------|
B|--2---2---1---1------------------------------------------------------------|
G|----------1---1------------------------------------------------------------|
D|---------------------------------------------------------------------------|
A|---------------------------------------------------------------------------|
E|---------------------------------------------------------------------------|

GUITAR 1: Plays this bit in the background on the chorus repeatedly
e|---------------------------------------------------------------------------|
B|---------------------------------------------------------------------------|
G|---------------------------------------------------------------------------|
D|--2-2-2-2-2-2-2-2-------------1-1------------------------------------------|
A|------------------0-0-2-2-4-4----------------------------------------------|
E|---------------------------------------------------------------------------|

GUITAR 2: Played in the chorus, think these are right.
e|---------------------------------------------------------------------------|
B|--5---5---2---2------------------------------------------------------------|
G|--4---4---2---2------------------------------------------------------------|
D|---------------------------------------------------------------------------|
A|---------------------------------------------------------------------------|
E|---------------------------------------------------------------------------|

| /  slide up
| \  slide down
| h  hammer-on
| p  pull-off
| ~  vibrato
| +  harmonic
| x  Mute note
===============================================================================
Tap to rate this tab
# A B C D E F G H I J K L M N O P Q R S T U V W X Y Z