Song name
# A B C D E F G H I J K L M N O P Q R S T U V W X Y Z

Undertow - Control tab

www.myspace.com/undertowhc

eb|------------------------------|
Bb|------------------------------|
Gb|-9---9-9--9-9--10-10-10-10-10-|
Db|-9---9-9--9-9--10-10-10-10-10-| x2
Ab|-7---7-7--7-7--8--8--8--8--8--|
Eb|------------------------------|

eb|---------------------|
Bb|---------------------|
Gb|-10--9--9------------|
Db|-10--9--9------------| 
Ab|-8---7--7------------|
Eb|---------------------|

eb|---------------------|
Bb|---------------------|
Gb|-9-------------------|
Db|-9-------------------| 
Ab|-7-------------------|
Eb|---------------------|

eb|---------------------|
Bb|---------------------|
Gb|-9-9-----------------|
Db|-9-9-2---------------|  
Ab|-7-7-2---------------|
Eb|-----0---------------|

eb|---------------------|
Bb|---------------------|
Gb|-9-9-----------------|
Db|-9-9-2---------------|  
Ab|-7-7-2----pick slide-|
Eb|-----0---------------|

eb|------------------------------|
Bb|------------------------------|
Gb|-9---9-9--9-9--10-10-10-10-10-|
Db|-9---9-9--9-9--10-10-10-10-10-| x4
Ab|-7---7-7--7-7--8--8--8--8--8--|
Eb|------------------------------|

One gtr plays above normally, one plays it with
a weird noise effect.

eb|------------------------|
Bb|------------------------|
Gb|-10--9--9-----10--14-14-|
Db|-10--9--9-----10--14-14-| x4 
Ab|-8---7--7-----8---12-12-|
Eb|------------------------|

eb|------------------------------|
Bb|------------------------------|
Gb|-9---9-9--9-9--10-10-10-10-10-|
Db|-9---9-9--9-9--10-10-10-10-10-| x4
Ab|-7---7-7--7-7--8--8--8--8--8--|
Eb|------------------------------|

w/effect

eb|------------------------|
Bb|------------------------|
Gb|-10--9--9-----10--14-14-|
Db|-10--9--9-----10--14-14-| x4 
Ab|-8---7--7-----8---12-12-|
Eb|------------------------|

eb|------------------------------|
Bb|------------------------------|
Gb|-9---9-9--9-9--10-10-10-10-10-|
Db|-9---9-9--9-9--10-10-10-10-10-| x4
Ab|-7---7-7--7-7--8--8--8--8--8--|
Eb|------------------------------|

w/effect

eb|------------------------------|
Bb|------------------------------|
Gb|-9---9-9--9-9--10-10-10-10-10-|
Db|-9---9-9--9-9--10-10-10-10-10-| x2
Ab|-7---7-7--7-7--8--8--8--8--8--|
Eb|------------------------------|

eb|------------------------------|
Bb|------------------------------|
Gb|-9-9-9------------------------|
Db|-9-9-9---feedback-------------| 
Ab|-8-7-7------------------------|
Eb|------------------------------|

eb|------------------------------|
Bb|------------------------------|
Gb|-9---9-9--9-9--10-10-10-10-10-|
Db|-9---9-9--9-9--10-10-10-10-10-| x4
Ab|-7---7-7--7-7--8--8--8--8--8--|
Eb|------------------------------|

w/effect


eb|------------------------------|
Bb|------------------------------|
Gb|-9---9-9--9-9--10-10-10-10-10-|
Db|-9---9-9--9-9--10-10-10-10-10-| x2
Ab|-7---7-7--7-7--8--8--8--8--8--|
Eb|------------------------------|

eb|------------------|
Bb|-10-9-------------|
Gb|-10-9-------------|
Db|-8--7-------------| 
Ab|------------------|
Eb|------------------|

END

Tap to rate this tab
# A B C D E F G H I J K L M N O P Q R S T U V W X Y Z