Song name
# A B C D E F G H I J K L M N O P Q R S T U V W X Y Z

Underworld - Calibans Dream tab

This is the main riff for the song.. enjoy!!


E-------------------|----------------------------|----------------------|----|
B-------------------|----------------------------|----------------------|----|
G-11-11-11-11-11----|-12-12-12-11-9----11-9------|-11-11-11-11-11-----9-|----|
D----------------9--|---------------12------11-12|----------------9-12--|----|
A-------------------|----------------------------|----------------------|----|
E-------------------|----------------------------|----------------------|----|


E----------------------------|
B----------------------------|
G-12-12-12-11-9---11-9-------|
D---------------12-----11-12-|
A----------------------------|
E----------------------------|


It just repeats over again
Tap to rate this tab
# A B C D E F G H I J K L M N O P Q R S T U V W X Y Z