Song name
# A B C D E F G H I J K L M N O P Q R S T U V W X Y Z

Underworld - Born Slippy tab

album: Trainspotting O.S.T.

Basically there is no guitar in this song. But I transcripted piano
part, which is easy as hell to play on gtr.


E|--------------------------------|--------------------------------|
B|--------------------------------|--------------------------------|
G|-3---(3)---(3)---(3)---(3)------|--------------------------------|
D|-5---(5)---(5)---(5)---(5)------|--------------------------------|
A|-6---(6)---(6)---(6)---(6)------|--------------------------------|
E|--------------------------------|--------------------------------|


E|--------------------------------|--------------------------------|
B|--------------------------------|--------------------------------|
G|-5---(5)---(5)---(5)---(5)------|-3---(3)---(3)---(3)---(3)------|
D|-3---(3)---(3)---(3)---(3)------|--------------------------------|
A|-5---(5)---(5)---(5)---(5)------|--------------------------------|
E|--------------------------------|--------------------------------|
Tap to rate this tab
 
# A B C D E F G H I J K L M N O P Q R S T U V W X Y Z