Song name
# A B C D E F G H I J K L M N O P Q R S T U V W X Y Z

Unearth - Chosen tab

Band: Unearth
Song: Chosen



Guitar # 1:



     H           W                   W                   W                 
E||-----------|-------------------|-------------------|-------------------|
B||-----------|-------------------|-------------------|-------------------|
G||-----------|-------------------|-------------------|-------------------|
D||-----------|-------------------|-------------------|-------------------|
A||-----------|-------------------|-------------------|-------------------|
E||-----------|--9----------------|--9----------------|--9----------------|
B||-----------|--7----------------|--7----------------|--7----------------|


  W                   Q    E  E  E  E  E  E     Q    E  E  E   E  E  E   
-------------------|-------------------------|--------------------------|
-------------------|-------------------------|--------------------------|
-------------------|-------------------------|--------------------------|
-------------------|-------------------------|--------------------------|
-------------------|----------------7--9--7--|--7----7-----7--10--9--7--|
--9----------------|--9----9--7--9--5--7--5--|--5----5--9--5---8--7--5--|
--7----------------|--7----7--5--7-----------|----------7---------------|


   Q     E   E  Q    E  E     Q    E  E  E   E  E  E   
---------------------------|--------------------------|
---------------------------|--------------------------|
---------------------------|--------------------------|
---------------------------|--------------------------|
--10----10--10--9----9--9--|--7----7--7--9--10--9--7--|
---8-----8---8--7----7--7--|--5----5--5--7---8--7--5--|
---------------------------|--------------------------|


       PM PM PM PM PM PM                                                      
  Q    E  E  E  E  E  E     Q    E  E  E  E  E  E     Q    E  E  E  E  E  E   
-------------------------|-------------------------|-------------------------|
-------------------------|-------------------------|-------------------------|
-------------------------|-------------------------|-------------------------|
-------------------------|-------------------------|-------------------------|
-------------------------|----------------7--9-----|-------------7--9--7-----|
--9----9--9--9--9--9--9--|--9----9--7--9--5--7--9--|--9----7--9--5--7--5--9--|
--7----7--7--7--7--7--7--|--7----7--5--7--------7--|--7----5--7-----------7--|


   Q    Q    Q    E  E     Q    E  E  E  E  E  E     Q    E  E  E   E  E  E   
------------------------|-------------------------|--------------------------|
------------------------|-------------------------|--------------------------|
------------------------|-------------------------|--------------------------|
------------------------|-------------------------|--------------------------|
--10----9----7----9--7--|----------------7--9--7--|--7----7-----7--10--9--7--|
---8----7----5----7--5--|--9----9--7--9--5--7--5--|--5----5--9--5---8--7--5--|
------------------------|--7----7--5--7-----------|----------7---------------|


   Q     E   E  Q    E  E     Q    E  E  E   E  E  E   
---------------------------|--------------------------|
---------------------------|--------------------------|
---------------------------|--------------------------|
---------------------------|--------------------------|
--10----10--10--9----9--9--|--7----7--7--9--10--9--7--|
---8-----8---8--7----7--7--|--5----5--5--7---8--7--5--|
---------------------------|--------------------------|


       PM PM PM PM PM PM                                                      
  Q    E  E  E  E  E  E     Q    E  E  E  E  E  E     Q    E  E  E  E  E  E   
-------------------------|-------------------------|-------------------------|
-------------------------|-------------------------|-------------------------|
-------------------------|-------------------------|-------------------------|
-------------------------|-------------------------|-------------------------|
-------------------------|----------------7--9-----|-------------7--9--7-----|
--9----9--9--9--9--9--9--|--9----9--7--9--5--7--9--|--9----7--9--5--7--5--9--|
--7----7--7--7--7--7--7--|--7----7--5--7--------7--|--7----5--7-----------7--|


                                        PM PM PM    PM                     
   Q    Q    Q    E  E     Q    E  Q    E  E  E     E  E  Q     Q    Q     
------------------------|------------------------|------------------------|
------------------------|------------------------|------------------------|
------------------------|------------------------|------------------------|
------------------------|------------------------|------------------------|
--10----9----7----9--7--|------------------------|-----7--9----10----9----|
---8----7----5----7--5--|--9----9--9----9--9--9--|--9--5--7-----8----7----|
------------------------|--7----7--7----7--7--7--|--7---------------------|


                ^    ^    PM    PM PM                    
   E    E    E  Q    Q    E     E  E   Q.      E   Q     
-----------------------------|--------------------------|
-----------------------------|--------------------------|
-----------------------------|--------------------------|
-----------------------------|--------------------------|
-----------------------------|--------------------------|
-----------------------------|--------12-------x--10----|
--10h--12p--10--7----7----7--|--7--7--10-------x---8----|


               PM PM PM    PM                                     ^    ^    PM  
  Q    E  Q    E  E  E     E  E  Q     Q    Q        E    E    E  Q    Q    E   
------------------------|------------------------|-----------------------------|
------------------------|------------------------|-----------------------------|
------------------------|------------------------|-----------------------------|
------------------------|------------------------|-----------------------------|
------------------------|-----7--9----10----9----|-----------------------------|
--9----9--9----9--9--9--|--9--5--7-----8----7----|-----------------------------|
--7----7--7----7--7--7--|--7---------------------|--10h--12p--10--7----7----7--|


  PM                                       PM PM PM    PM                     
  E  S S E  E  E  E  E  E     Q    E  Q    E  E  E     E  E  Q     Q    Q     
---------------------------|------------------------|------------------------|
---------------------------|------------------------|------------------------|
---------------------------|------------------------|------------------------|
---------------------------|------------------------|------------------------|
---------------------------|------------------------|-----7--9----10----9----|
-----7-8-7--7--5--7--5-----|--9----9--9----9--9--9--|--9--5--7-----8----7----|
--7---------------------7--|--7----7--7----7--7--7--|--7---------------------|


                ^    ^    PM    PM PM                    
   E    E    E  Q    Q    E     E  E   Q.      E   Q     
-----------------------------|--------------------------|
-----------------------------|--------------------------|
-----------------------------|--------------------------|
-----------------------------|--------------------------|
-----------------------------|--------------------------|
-----------------------------|--------12-------x--10----|
--10h--12p--10--7----7----7--|--7--7--10-------x---8----|


               PM PM PM    PM                                     ^    ^    PM  
  Q    E  Q    E  E  E     E  E  Q     Q    Q        E    E    E  Q    Q    E   
------------------------|------------------------|-----------------------------|
------------------------|------------------------|-----------------------------|
------------------------|------------------------|-----------------------------|
------------------------|------------------------|-----------------------------|
------------------------|-----7--9----10----9----|-----------------------------|
--9----9--9----9--9--9--|--9--5--7-----8----7----|-----------------------------|
--7----7--7----7--7--7--|--7---------------------|--10h--12p--10--7----7----7--|


  PM                                                  
  E  S S E  E  E  E  E  E     Q    E  E  E  E  E  E   
---------------------------|-------------------------|
---------------------------|-------------------------|
---------------------------|-------------------------|
---------------------------|-------------------------|
---------------------------|----------------7--9--7--|
-----7-8-7--7--5--7--5-----|--9----9--7--9--5--7--5--|
--7---------------------7--|--7----7--5--7-----------|


  Q    E  E  E   E  E  E      Q     E   E  Q    E  E   
--------------------------|---------------------------|
--------------------------|---------------------------|
--------------------------|---------------------------|
--------------------------|---------------------------|
--7----7-----7--10--9--7--|--10----10--10--9----9--9--|
--5----5--9--5---8--7--5--|---8-----8---8--7----7--7--|
----------7---------------|---------------------------|


                                  PM PM PM PM PM PM                            
  Q    E  E  E   E  E  E     Q    E  E  E  E  E  E     Q    E  E  E  E  E  E   
--------------------------|-------------------------|-------------------------|
--------------------------|-------------------------|-------------------------|
--------------------------|-------------------------|-------------------------|
--------------------------|-------------------------|-------------------------|
--7----7--7--9--10--9--7--|-------------------------|----------------7--9-----|
--5----5--5--7---8--7--5--|--9----9--9--9--9--9--9--|--9----9--7--9--5--7--9--|
--------------------------|--7----7--7--7--7--7--7--|--7----7--5--7--------7--|


  Q    E  E  E  E  E  E      Q    Q    Q    E  E     Q    E  E  E  E  E  E   
-------------------------|------------------------|-------------------------|
-------------------------|------------------------|-------------------------|
-------------------------|------------------------|-------------------------|
-------------------------|------------------------|-------------------------|
-------------7--9--7-----|--10----9----7----9--7--|----------------7--9--7--|
--9----7--9--5--7--5--9--|---8----7----5----7--5--|--9----9--7--9--5--7--5--|
--7----5--7-----------7--|------------------------|--7----7--5--7-----------|


  Q    E  E  E   E  E  E      Q     E   E  Q    E  E   
--------------------------|---------------------------|
--------------------------|---------------------------|
--------------------------|---------------------------|
--------------------------|---------------------------|
--7----7-----7--10--9--7--|--10----10--10--9----9--9--|
--5----5--9--5---8--7--5--|---8-----8---8--7----7--7--|
----------7---------------|---------------------------|


                                  PM PM PM PM PM PM                            
  Q    E  E  E   E  E  E     Q    E  E  E  E  E  E     Q    E  E  E  E  E  E   
--------------------------|-------------------------|-------------------------|
--------------------------|-------------------------|-------------------------|
--------------------------|-------------------------|-------------------------|
--------------------------|-------------------------|-------------------------|
--7----7--7--9--10--9--7--|-------------------------|----------------7--9-----|
--5----5--5--7---8--7--5--|--9----9--9--9--9--9--9--|--9----9--7--9--5--7--9--|
--------------------------|--7----7--7--7--7--7--7--|--7----7--5--7--------7--|


  Q    E  E  E  E  E  E      Q    Q    Q    E  E     Q    E  E  H         
-------------------------|------------------------|----------------------|
-------------------------|------------------------|----------------------|
-------------------------|------------------------|----------------------|
-------------------------|------------------------|----------------------|
-------------7--9--7-----|--10----9----7----9--7--|----------------------|
--9----7--9--5--7--5--9--|---8----7----5----7--5--|--9----9--9-----------|
--7----5--7-----------7--|------------------------|--7----7--7-----------|


  W                   Q    E  E  H           H        E   E   Q     
-------------------|----------------------|------------------------|
-------------------|----------------------|------------------------|
-------------------|----------------------|------------------------|
-------------------|----------------------|------------------------|
-------------------|----------------------|------------------------|
-------------------|--9----9--9-----------|--------------12--10----|
-------------------|--7----7--7-----------|--------------10---8----|


  Q    E  E  H                 W                    W                 
----------------------|-----|-------------------|--------------------|
----------------------|-----|-------------------|--------------------|
----------------------|-----|-------------------|--------------------|
----------------------|-----|-------------------|--------------------|
----------------------|-----|-------------------|--------------------|
--9----9--9-----------|-----|--5----------------|--12----------------|
--7----7--7-----------|-----|--3----------------|--10----------------|


       PM PM PM PM PM PM    PM PM PM PM PM PM PM PM         PM PM PM PM PM PM  
  Q    E  E  E  E  E  E     E  E  E  E  E  E  E  E     Q    E  E  E  E  E  E   
-------------------------|--------------------------|-------------------------|
-------------------------|--------------------------|-------------------------|
-------------------------|--------------------------|-------------------------|
-------------------------|--------------------------|-------------------------|
-------------------------|--------------------------|-------------------------|
-------------------------|--------------------------|-------------------------|
--7----7--7--7--7--7--7--|--7--7--7--7--7--7--7--7--|--7----7--7--7--7--7--7--|


  PM PM PM PM PM                  PM PM PM PM PM PM    PM PM PM PM PM PM PM PM  
  E  E  E  E  E   E  Q       Q    E  E  E  E  E  E     E  E  E  E  E  E  E  E   
--------------------------|-------------------------|--------------------------|
--------------------------|-------------------------|--------------------------|
--------------------------|-------------------------|--------------------------|
--------------------------|-------------------------|--------------------------|
--------------------------|-------------------------|--------------------------|
--------------------------|--9----------------------|--------------------------|
--7--7--7--7--7--10--8----|--7----7--7--7--7--7--7--|--7--7--7--7--7--7--7--7--|


  W                    W                 
-------------------|--------------------|
-------------------|--------------------|
-------------------|--------------------|
-------------------|--------------------|
-------------------|--------------------|
--5----------------|--12----------------|
--3----------------|--10----------------|


  Same thing Ken plays, moved one string down                       
  Q                                           E   E  E   E  E   E   
-------------------------------------------------------------------|
-------------------------------------------------------------------|
-----------------------------------------------------7--11--7--11--|
-------------------------------------------------11----------------|
----------------------------------------------9--------------------|
--9----------------------------------------------------------------|
--7----------------------------------------------------------------|


   E  E   E  E   E  E  E  E     Q    E   E  E   E  E   E   
-----------------------------|----------------------------|
-----------------------------|----------------------------|
--10--6--10--9------9--7--6--|--------------7--11--7--11--|
----------------10-----------|----------11----------------|
-----------------------------|-------9--------------------|
-----------------------------|--9-------------------------|
-----------------------------|--7-------------------------|


   E  E   E  E  E   E  E  E     Q    E   E  E   E  E   E   
-------------9--8--10--9--7--|----------------------------|
---------10------------------|----------------------------|
--10--9----------------------|--------------7--11--7--11--|
-----------------------------|----------11----------------|
-----------------------------|-------9--------------------|
-----------------------------|--9-------------------------|
-----------------------------|--7-------------------------|


   E  E   E  E   E  E  E  E      Q    E  E   E  E   E  E   
-----------------------------|----------------------------|
-----------------------------|----------------------------|
--10--6--10--9------9--7--6--|----------------------------|
----------------10-----------|--10----9--7------7---------|
-----------------------------|--------------10-----10--9--|
-----------------------------|----------------------------|
-----------------------------|----------------------------|


                                              PM PM PM  
  Q    S  S  S  S E  E  E  E     Q    E  Q    E  E  E   
------------------------------|------------------------|
------------------------------|------------------------|
--7----6h-7p-6p-4----4--------|------------------------|
------------------7-----7--6--|------------------------|
------------------------------|------------------------|
------------------------------|--9----9--9----9--9--9--|
------------------------------|--7----7--7----7--7--7--|


  PM                                     ^    ^    PM  
  E  E  Q     Q    Q        E    E    E  Q    Q    E   
------------------------|-----------------------------|
------------------------|-----------------------------|
------------------------|-----------------------------|
------------------------|-----------------------------|
-----7--9----10----9----|-----------------------------|
--9--5--7-----8----7----|-----------------------------|
--7---------------------|--10h--12p--10--7----7----7--|


  PM PM                                   PM PM PM    PM                     
  E  E   Q.      E   Q       Q    E  Q    E  E  E     E  E  Q     Q    Q     
--------------------------|------------------------|------------------------|
--------------------------|------------------------|------------------------|
--------------------------|------------------------|------------------------|
--------------------------|------------------------|------------------------|
--------------------------|------------------------|-----7--9----10----9----|
--------12-------x--10----|--9----9--9----9--9--9--|--9--5--7-----8----7----|
--7--7--10-------x---8----|--7----7--7----7--7--7--|--7---------------------|


                ^    ^    PM    PM                        
   E    E    E  Q    Q    E     E  S S E  E  E  E  E  E   
-----------------------------|---------------------------|
-----------------------------|---------------------------|
-----------------------------|---------------------------|
-----------------------------|---------------------------|
-----------------------------|---------------------------|
-----------------------------|-----7-8-7--7--5--7--5-----|
--10h--12p--10--7----7----7--|--7---------------------7--|


               PM PM PM    PM                                     ^    ^    PM  
  Q    E  Q    E  E  E     E  E  Q     Q    Q        E    E    E  Q    Q    E   
------------------------|------------------------|-----------------------------|
------------------------|------------------------|-----------------------------|
------------------------|------------------------|-----------------------------|
------------------------|------------------------|-----------------------------|
------------------------|-----7--9----10----9----|-----------------------------|
--9----9--9----9--9--9--|--9--5--7-----8----7----|-----------------------------|
--7----7--7----7--7--7--|--7---------------------|--10h--12p--10--7----7----7--|


  PM PM                                   PM PM PM    PM                     
  E  E   Q.      E   Q       Q    E  Q    E  E  E     E  E  Q     Q    Q     
--------------------------|------------------------|------------------------|
--------------------------|------------------------|------------------------|
--------------------------|------------------------|------------------------|
--------------------------|------------------------|------------------------|
--------------------------|------------------------|-----7--9----10----9----|
--------12-------x--10----|--9----9--9----9--9--9--|--9--5--7-----8----7----|
--7--7--10-------x---8----|--7----7--7----7--7--7--|--7---------------------|


                                                            Use whammy bar    
                ^    ^    PM    PM                                            
   E    E    E  Q    Q    E     E  S S E  E  E  E  E  E     W                 
-----------------------------|---------------------------|-------------------|
-----------------------------|---------------------------|-------------------|
-----------------------------|---------------------------|-------------------|
-----------------------------|---------------------------|-------------------|
-----------------------------|---------------------------|-------------------|
-----------------------------|-----7-8-7--7--5--7--5-----|-------------------|
--10h--12p--10--7----7----7--|--7---------------------7--|-------------------|


  W                   W                   W                   W                 
-------------------|-------------------|-------------------|-------------------|
-------------------|-------------------|-------------------|-------------------|
-------------------|-------------------|-------------------|-------------------|
-------------------|-------------------|-------------------|-------------------|
-------------------|-------------------|-------------------|-------------------|
-------------------|-------------------|-------------------|-------------------|
-------------------|-------------------|-------------------|-------------------|


  W                   W                   W                 
-------------------|-------------------|-------------------|
-------------------|-------------------|-------------------|
-------------------|-------------------|-------------------|
-------------------|-------------------|-------------------|
-------------------|-------------------|-------------------|
-------------------|-------------------|-------------------|
-------------------|-------------------|-------------------|


                                           PM  PM  PM  PM  
  Q    Q    E   Q     E      E   E   Q     E   E   E   E   
-------------------------|--------------------------------|
-------------------------|--------------------------------|
-------------------------|--------------------------------|
-------------------------|--------------------------------|
-------------------------|--------------------------------|
--9----9-------11----12--|---L--12--12----12--12--12--12--|
--7----7----x---9----10--|---L--10--10----10--10--10--10--|


                                               PM  PM  PM  
  Q    Q    E   Q     E      E   E   E   Q     E   E   E   
-------------------------|--------------------------------|
-------------------------|--------------------------------|
-------------------------|--------------------------------|
-------------------------|--------------------------------|
--9----9-------11----12--|------12--12--14----14--14--14--|
--7----7----x---9----10--|---L--10--10--12----12--12--12--|
-------------------------|--------------------------------|


                                           PM  PM  PM  PM  
  Q    Q    E   Q     E      E   E   Q     E   E   E   E   
-------------------------|--------------------------------|
-------------------------|--------------------------------|
-------------------------|--------------------------------|
-------------------------|--------------------------------|
-------------------------|---L----------------------------|
--9----9-------11----12--|---L--12--12----12--12--12--12--|
--7----7----x---9----10--|---L--10--10----10--10--10--10--|


                                               PM  PM  PM  
  Q    Q    E   Q     E      E   E   E   Q     E   E   E   
-------------------------|--------------------------------|
-------------------------|--------------------------------|
-------------------------|--------------------------------|
-------------------------|--------------------------------|
--9----9-------11----12--|------12--12--14----14--14--14--|
--7----7----x---9----10--|---L--10--10--12----12--12--12--|
-------------------------|--------------------------------|


                                           PM  PM  PM  PM  
  Q    Q    E   Q     E      E   E   Q     E   E   E   E   
-------------------------|--------------------------------|
-------------------------|--------------------------------|
-------------------------|--------------------------------|
-------------------------|--------------------------------|
-------------------------|---L----------------------------|
--9----9-------11----12--|---L--12--12----12--12--12--12--|
--7----7----x---9----10--|---L--10--10----10--10--10--10--|


                                               PM  PM  PM  
  Q    Q    E   Q     E      E   E   E   Q     E   E   E   
-------------------------|--------------------------------|
-------------------------|--------------------------------|
-------------------------|--------------------------------|
-------------------------|--------------------------------|
--9----9-------11----12--|------12--12--14----14--14--14--|
--7----7----x---9----10--|---L--10--10--12----12--12--12--|
-------------------------|--------------------------------|


                                       PM PM PM PM                             
  Q    Q     E  Q    E      E  E  Q    E  E  E  E      Q     Q    E  Q     E   
------------------------|--------------------------|--------------------------|
------------------------|--------------------------|--------------------------|
------------------------|--------------------------|--------------------------|
------------------------|--------------------------|--------------------------|
------------------------|--------------------------|--11----11-------9--------|
--9----9-----x--7----5--|---L--5--5----5--5--5--5--|---9-----9----x--7----12--|
--7----7--------5----3--|------3--3----3--3--3--3--|----------------------10--|


                     PM  PM  PM         PM  PM  PM      PM      PM  
   E   E   E   Q     E   E   E      E   E   E   E   E   E   E   E   
--------------------------------|----------------------------------|
--------------------------------|----------------------------------|
--------------------------------|--11--------------11------13------|
--------------------------------|------11--11--11------11------11--|
--------------------------------|----------------------------------|
------12--12--11----11--11--11--|----------------------------------|
---L--10--10---9-----9---9---9--|----------------------------------|


       PM      PM                                                     
   E   E   E   E   E   E   E   E       E   E   E   E   E   E  E   E   
-----------------------------------|---------------------------------|
-----------------------------------|---------------------------------|
--14------16------14--13--14--16~--|---L--14--13--11--13--11--9--11--|
------11------11-------------------|---------------------------------|
-----------------------------------|---------------------------------|
-----------------------------------|---------------------------------|
-----------------------------------|---------------------------------|


                           |---3---|   |---3---|   |---3---|   |---3---|   
  Q    E  Q.      Q        E   E   E   E   E   E   E   E   E   E   E   E   
-----------------------|------------------16--17--17--16------------------|
-----------------------|--14--15--17--19------------------19--17--15--14--|
--7----9--6~------L----|--------------------------------------------------|
-----------------------|--------------------------------------------------|
-----------------------|--------------------------------------------------|
-----------------------|--------------------------------------------------|
-----------------------|--------------------------------------------------|


   |---3---|   |---3---|                 
   E   E   E   E   E   E   Q.       E    
-----------------------------------14---|
--14----------------------14~------17b--|
------16--14--13--14--16----------------|
----------------------------------------|
----------------------------------------|
----------------------------------------|
----------------------------------------|


                   |----3----|                                              
   E   E   E   E   E    E    E    E   E      E   E   E   E   E   E   Q      
---L--14---------------------------------|---------------------------------|
---L------17--15--14h--15p--14p--12--14--|--15--17--15--14--12-------------|
-----------------------------------------|----------------------14--13b----|
-----------------------------------------|---------------------------------|
-----------------------------------------|---------------------------------|
-----------------------------------------|---------------------------------|
-----------------------------------------|---------------------------------|


   |---3---|   |---3---|   |---3---|  |---3---|   
   E   E   E   E   E   E   E   E   E  E   E   E   
-------------------------------------------------|
--14--10--------------10--14--10-------------10--|
----------11------11--------------11-----11------|
--------------11----------------------7----------|
-------------------------------------------------|
-------------------------------------------------|
-------------------------------------------------|


   |---3---|   |---3---|   |---3---|   |---3---|                              
   E   E   E   E   E   E   E   E   E   E   E   E      H        E   Q     E    
--------------------------------------------------|--------------------------|
--17--14--------------14--17--14--------------14--|--19-----------22----21h--|
----------14------14--------------14------14------|--------------------------|
--------------14----------------------14----------|--------------------------|
--------------------------------------------------|--------------------------|
--------------------------------------------------|--------------------------|
--------------------------------------------------|--------------------------|


   E    E    E   E   E   E   Q        H         E   E   E   E   
----------------------------------|----------------------------|
--22p--21p--19------19--21--22----|----------------------------|
----------------18----------------|--11---------L------11--13--|
----------------------------------|----------------11----------|
----------------------------------|----------------------------|
----------------------------------|----------------------------|
----------------------------------|----------------------------|


   H         E   E   E   E   
----------------------------|
----------------------------|
--14---------L--11--13--14--|
----------------------------|
----------------------------|
----------------------------|
----------------------------|


   Listen to song for staccato.                        
   E.                           E.   E   E.   E.   E   
------------------------------------------------------|
------------------------------------------------------|
--16---------------------------14---13--14---13---11--|
------------------------------------------------------|
------------------------------------------------------|
------------------------------------------------------|
------------------------------------------------------|


                                  Listen to song for bending pattern. 
   E.   E.   E   E.   E.   E      W                                   
------------------------------|--14----------------------------------|
------------------------------|--------------------------------------|
--13---11-------11------------|--------------------------------------|
------------14-------14---13--|--------------------------------------|
------------------------------|--------------------------------------|
------------------------------|--------------------------------------|
------------------------------|--------------------------------------|


   W                    W                    W                 
---L----------------|---L----------------|---L----------------|
--------------------|--------------------|--------------------|
--------------------|--------------------|--------------------|
--------------------|--------------------|--------------------|
--------------------|--------------------|--------------------|
--------------------|--------------------|--------------------|
--------------------|--------------------|--------------------|


   Q.      Q.      Q        W                    Q.      Q.      Q     
------------------------|--------------------|------------------------|
------------------------|--------------------|------------------------|
--14------11------------|--------------------|--14------11------------|
------------------11----|---L----------------|------------------11----|
------------------------|--------------------|------------------------|
------------------------|--------------------|------------------------|
------------------------|--------------------|------------------------|


   W                    Q.      Q.      Q        W                 
--------------------|------------------------|--------------------|
--------------------|------------------------|--------------------|
--------------------|--14------11------------|--------------------|
---L----------------|------------------11----|---L----------------|
--------------------|------------------------|--------------------|
--------------------|------------------------|--------------------|
--------------------|------------------------|--------------------|


                                                   PM PM PM PM PM PM PM  
   Q.      Q.      Q        W                   E  E  E  E  E  E  E  E   
------------------------|--------------------|--------------------------|
------------------------|--------------------|--------------------------|
--14------11------------|--------------------|--------------------------|
------------------11----|---L----------------|--------------------------|
------------------------|--------------------|--------------------------|
------------------------|--------------------|--------------------------|
------------------------|--------------------|--7--7--7--7--7--7--7--7--|


  PM PM PM PM PM PM PM PM       PM PM PM PM PM PM PM  
  E  E  E  E  E  E  E  E     E  E  E  E  E  E  E  E   
--------------------------|--------------------------|
--------------------------|--------------------------|
--------------------------|--------------------------|
--------------------------|--------------------------|
--------------------------|--------------------------|
--------------------------|--------------------------|
--7--7--7--7--7--7--7--7--|--3--3--3--3--3--3--3--3--|


       PM  PM  PM  PM  PM  PM  PM                            
   E   E   E   E   E   E   E   E     Q    E  E  E  E  E  E   
----------------------------------|-------------------------|
----------------------------------|-------------------------|
----------------------------------|-------------------------|
----------------------------------|-------------------------|
----------------------------------|----------------7--9--7--|
----------------------------------|--9----9--7--9--5--7--5--|
--10--10--10--10--10--10--10--10--|--7----7--5--7-----------|


  Q    E  E  E   E  E  E      Q     E   E  Q    E  E   
--------------------------|---------------------------|
--------------------------|---------------------------|
--------------------------|---------------------------|
--------------------------|---------------------------|
--7----7-----7--10--9--7--|--10----10--10--9----9--9--|
--5----5--9--5---8--7--5--|---8-----8---8--7----7--7--|
----------7---------------|---------------------------|


                                  PM PM PM PM PM PM                            
  Q    E  E  E   E  E  E     Q    E  E  E  E  E  E     Q    E  E  E  E  E  E   
--------------------------|-------------------------|-------------------------|
--------------------------|-------------------------|-------------------------|
--------------------------|-------------------------|-------------------------|
--------------------------|-------------------------|-------------------------|
--7----7--7--9--10--9--7--|-------------------------|----------------7--9-----|
--5----5--5--7---8--7--5--|--9----9--9--9--9--9--9--|--9----9--7--9--5--7--9--|
--------------------------|--7----7--7--7--7--7--7--|--7----7--5--7--------7--|


  Q    E  E  E  E  E  E      Q    Q    Q    E  E     Q    E  E  E  E  E  E   
-------------------------|------------------------|-------------------------|
-------------------------|------------------------|-------------------------|
-------------------------|------------------------|-------------------------|
-------------------------|------------------------|-------------------------|
-------------7--9--7-----|--10----9----7----9--7--|----------------7--9--7--|
--9----7--9--5--7--5--9--|---8----7----5----7--5--|--9----9--7--9--5--7--5--|
--7----5--7-----------7--|------------------------|--7----7--5--7-----------|


  Q    E  E  E   E  E  E      Q     E   E  Q    E  E   
--------------------------|---------------------------|
--------------------------|---------------------------|
--------------------------|---------------------------|
--------------------------|---------------------------|
--7----7-----7--10--9--7--|--10----10--10--9----9--9--|
--5----5--9--5---8--7--5--|---8-----8---8--7----7--7--|
----------7---------------|---------------------------|


                                  PM PM PM PM PM PM                            
  Q    E  E  E   E  E  E     Q    E  E  E  E  E  E     Q    E  E  E  E  E  E   
--------------------------|-------------------------|-------------------------|
--------------------------|-------------------------|-------------------------|
--------------------------|-------------------------|-------------------------|
--------------------------|-------------------------|-------------------------|
--7----7--7--9--10--9--7--|-------------------------|----------------7--9-----|
--5----5--5--7---8--7--5--|--9----9--9--9--9--9--9--|--9----9--7--9--5--7--9--|
--------------------------|--7----7--7--7--7--7--7--|--7----7--5--7--------7--|


                                                                  PM PM PM  
  Q    E  E  E  E  E  E      Q    Q    Q    E  E     Q    E  Q    E  E  E   
-------------------------|------------------------|------------------------|
-------------------------|------------------------|------------------------|
-------------------------|------------------------|------------------------|
-------------------------|------------------------|------------------------|
-------------7--9--7-----|--10----9----7----9--7--|------------------------|
--9----7--9--5--7--5--9--|---8----7----5----7--5--|--9----9--9----9--9--9--|
--7----5--7-----------7--|------------------------|--7----7--7----7--7--7--|


  PM                                     ^    ^    PM  
  E  E  Q     Q    Q        E    E    E  Q    Q    E   
------------------------|-----------------------------|
------------------------|-----------------------------|
------------------------|-----------------------------|
------------------------|-----------------------------|
-----7--9----10----9----|-----------------------------|
--9--5--7-----8----7----|-----------------------------|
--7---------------------|--10h--12p--10--7----7----7--|


  PM PM                                   PM PM PM    PM                     
  E  E   Q.      E   Q       Q    E  Q    E  E  E     E  E  Q     Q    Q     
--------------------------|------------------------|------------------------|
--------------------------|------------------------|------------------------|
--------------------------|------------------------|------------------------|
--------------------------|------------------------|------------------------|
--------------------------|------------------------|-----7--9----10----9----|
--------12-------x--10----|--9----9--9----9--9--9--|--9--5--7-----8----7----|
--7--7--10-------x---8----|--7----7--7----7--7--7--|--7---------------------|


                ^    ^    PM    PM                        
   E    E    E  Q    Q    E     E  S S E  E  E  E  E  E   
-----------------------------|---------------------------|
-----------------------------|---------------------------|
-----------------------------|---------------------------|
-----------------------------|---------------------------|
-----------------------------|---------------------------|
-----------------------------|-----7-8-7--7--5--7--5-----|
--10h--12p--10--7----7----7--|--7---------------------7--|


               PM PM PM    PM                                     ^    ^    PM  
  Q    E  Q    E  E  E     E  E  Q     Q    Q        E    E    E  Q    Q    E   
------------------------|------------------------|-----------------------------|
------------------------|------------------------|-----------------------------|
------------------------|------------------------|-----------------------------|
------------------------|------------------------|-----------------------------|
------------------------|-----7--9----10----9----|-----------------------------|
--9----9--9----9--9--9--|--9--5--7-----8----7----|-----------------------------|
--7----7--7----7--7--7--|--7---------------------|--10h--12p--10--7----7----7--|


  PM PM                                   PM PM PM    PM                     
  E  E   Q.      E   Q       Q    E  Q    E  E  E     E  E  Q     Q    Q     
--------------------------|------------------------|------------------------|
--------------------------|------------------------|------------------------|
--------------------------|------------------------|------------------------|
--------------------------|------------------------|------------------------|
--------------------------|------------------------|-----7--9----10----9----|
--------12-------x--10----|--9----9--9----9--9--9--|--9--5--7-----8----7----|
--7--7--10-------x---8----|--7----7--7----7--7--7--|--7---------------------|


                ^    ^    PM    PM                                              
   E    E    E  Q    Q    E     E  S S E  E  E  E  E  E     Q.     Q    Q.      
-----------------------------|---------------------------|---------------------|
-----------------------------|---------------------------|---------------------|
-----------------------------|---------------------------|---------------------|
-----------------------------|---------------------------|---------------------|
-----------------------------|---------------------------|---------------------|
-----------------------------|-----7-8-7--7--5--7--5-----|--9------9-----------|
--10h--12p--10--7----7----7--|--7---------------------7--|--7------7-----------|


-----------||
-----------||
-----------||
-----------||
-----------||
-----------||
-----------||









Guitar # 2:



     H           W                   W                   W                 
E||-----------|-------------------|-------------------|-------------------|
B||-----------|-------------------|-------------------|-------------------|
G||-----------|-------------------|-------------------|-------------------|
D||-----------|-------------------|-------------------|-------------------|
A||-----------|-------------------|-------------------|-------------------|
E||-----------|--9----------------|--9----------------|--9----------------|
B||-----------|--7----------------|--7----------------|--7----------------|


  W                   Q    E  E  E  E  E  E     Q    E  E  E   E  E  E   
-------------------|-------------------------|--------------------------|
-------------------|-------------------------|--------------------------|
-------------------|-------------------------|--------------------------|
-------------------|-------------------------|--------------------------|
-------------------|----------------7--9--7--|--7----7-----7--10--9--7--|
--9----------------|--9----9--7--9--5--7--5--|--5----5--9--5---8--7--5--|
--7----------------|--7----7--5--7-----------|----------7---------------|


   Q     E   E  Q    E  E     Q    E  E  E   E  E  E   
---------------------------|--------------------------|
---------------------------|--------------------------|
---------------------------|--------------------------|
---------------------------|--------------------------|
--10----10--10--9----9--9--|--7----7--7--9--10--9--7--|
---8-----8---8--7----7--7--|--5----5--5--7---8--7--5--|
---------------------------|--------------------------|


       PM PM PM PM PM PM                                                      
  Q    E  E  E  E  E  E     Q    E  E  E  E  E  E     Q    E  E  E  E  E  E   
-------------------------|-------------------------|-------------------------|
-------------------------|-------------------------|-------------------------|
-------------------------|-------------------------|-------------------------|
-------------------------|-------------------------|-------------------------|
-------------------------|----------------7--9-----|-------------7--9--7-----|
--9----9--9--9--9--9--9--|--9----9--7--9--5--7--9--|--9----7--9--5--7--5--9--|
--7----7--7--7--7--7--7--|--7----7--5--7--------7--|--7----5--7-----------7--|


   Q    Q    Q    E  E     Q    E  E  E  E  E  E     Q    E  E  E   E  E  E   
------------------------|-------------------------|--------------------------|
------------------------|-------------------------|--------------------------|
------------------------|-------------------------|--------------------------|
------------------------|-------------------------|--------------------------|
--10----9----7----9--7--|----------------7--9--7--|--7----7-----7--10--9--7--|
---8----7----5----7--5--|--9----9--7--9--5--7--5--|--5----5--9--5---8--7--5--|
------------------------|--7----7--5--7-----------|----------7---------------|


   Q     E   E  Q    E  E     Q    E  E  E   E  E  E   
---------------------------|--------------------------|
---------------------------|--------------------------|
---------------------------|--------------------------|
---------------------------|--------------------------|
--10----10--10--9----9--9--|--7----7--7--9--10--9--7--|
---8-----8---8--7----7--7--|--5----5--5--7---8--7--5--|
---------------------------|--------------------------|


       PM PM PM PM PM PM                                                      
  Q    E  E  E  E  E  E     Q    E  E  E  E  E  E     Q    E  E  E  E  E  E   
-------------------------|-------------------------|-------------------------|
-------------------------|-------------------------|-------------------------|
-------------------------|-------------------------|-------------------------|
-------------------------|-------------------------|-------------------------|
-------------------------|----------------7--9-----|-------------7--9--7-----|
--9----9--9--9--9--9--9--|--9----9--7--9--5--7--9--|--9----7--9--5--7--5--9--|
--7----7--7--7--7--7--7--|--7----7--5--7--------7--|--7----5--7-----------7--|


                                        PM PM PM    PM                     
   Q    Q    Q    E  E     Q    E  Q    E  E  E     E  E  Q     Q    Q     
------------------------|------------------------|------------------------|
------------------------|------------------------|------------------------|
------------------------|------------------------|------------------------|
------------------------|------------------------|------------------------|
--10----9----7----9--7--|------------------------|-----7--9----10----9----|
---8----7----5----7--5--|--9----9--9----9--9--9--|--9--5--7-----8----7----|
------------------------|--7----7--7----7--7--7--|--7---------------------|


                ^    ^    PM    PM PM                    
   E    E    E  Q    Q    E     E  E   Q.      E   Q     
-----------------------------|--------------------------|
-----------------------------|--------------------------|
-----------------------------|--------------------------|
-----------------------------|--------------------------|
-----------------------------|--------------------------|
-----------------------------|--------12-------x--10----|
--10h--12p--10--7----7----7--|--7--7--10-------x---8----|


               PM PM PM    PM                                     ^    ^    PM  
  Q    E  Q    E  E  E     E  E  Q     Q    Q        E    E    E  Q    Q    E   
------------------------|------------------------|-----------------------------|
------------------------|------------------------|-----------------------------|
------------------------|------------------------|-----------------------------|
------------------------|------------------------|-----------------------------|
------------------------|-----7--9----10----9----|-----------------------------|
--9----9--9----9--9--9--|--9--5--7-----8----7----|-----------------------------|
--7----7--7----7--7--7--|--7---------------------|--10h--12p--10--7----7----7--|


  PM                                       PM PM PM    PM                     
  E  S S E  E  E  E  E  E     Q    E  Q    E  E  E     E  E  Q     Q    Q     
---------------------------|------------------------|------------------------|
---------------------------|------------------------|------------------------|
---------------------------|------------------------|------------------------|
---------------------------|------------------------|------------------------|
---------------------------|------------------------|-----7--9----10----9----|
-----7-8-7--7--5--7--5-----|--9----9--9----9--9--9--|--9--5--7-----8----7----|
--7---------------------7--|--7----7--7----7--7--7--|--7---------------------|


                ^    ^    PM    PM PM                    
   E    E    E  Q    Q    E     E  E   Q.      E   Q     
-----------------------------|--------------------------|
-----------------------------|--------------------------|
-----------------------------|--------------------------|
-----------------------------|--------------------------|
-----------------------------|--------------------------|
-----------------------------|--------12-------x--10----|
--10h--12p--10--7----7----7--|--7--7--10-------x---8----|


               PM PM PM    PM                                     ^    ^    PM  
  Q    E  Q    E  E  E     E  E  Q     Q    Q        E    E    E  Q    Q    E   
------------------------|------------------------|-----------------------------|
------------------------|------------------------|-----------------------------|
------------------------|------------------------|-----------------------------|
------------------------|------------------------|-----------------------------|
------------------------|-----7--9----10----9----|-----------------------------|
--9----9--9----9--9--9--|--9--5--7-----8----7----|-----------------------------|
--7----7--7----7--7--7--|--7---------------------|--10h--12p--10--7----7----7--|


  PM                                                  
  E  S S E  E  E  E  E  E     Q    E  E  E  E  E  E   
---------------------------|-------------------------|
---------------------------|-------------------------|
---------------------------|-------------------------|
---------------------------|-------------------------|
---------------------------|----------------7--9--7--|
-----7-8-7--7--5--7--5-----|--9----9--7--9--5--7--5--|
--7---------------------7--|--7----7--5--7-----------|


  Q    E  E  E   E  E  E      Q     E   E  Q    E  E   
--------------------------|---------------------------|
--------------------------|---------------------------|
--------------------------|---------------------------|
--------------------------|---------------------------|
--7----7-----7--10--9--7--|--10----10--10--9----9--9--|
--5----5--9--5---8--7--5--|---8-----8---8--7----7--7--|
----------7---------------|---------------------------|


                                  PM PM PM PM PM PM                            
  Q    E  E  E   E  E  E     Q    E  E  E  E  E  E     Q    E  E  E  E  E  E   
--------------------------|-------------------------|-------------------------|
--------------------------|-------------------------|-------------------------|
--------------------------|-------------------------|-------------------------|
--------------------------|-------------------------|-------------------------|
--7----7--7--9--10--9--7--|-------------------------|----------------7--9-----|
--5----5--5--7---8--7--5--|--9----9--9--9--9--9--9--|--9----9--7--9--5--7--9--|
--------------------------|--7----7--7--7--7--7--7--|--7----7--5--7--------7--|


  Q    E  E  E  E  E  E      Q    Q    Q    E  E     Q    E  E  E  E  E  E   
-------------------------|------------------------|-------------------------|
-------------------------|------------------------|-------------------------|
-------------------------|------------------------|-------------------------|
-------------------------|------------------------|-------------------------|
-------------7--9--7-----|--10----9----7----9--7--|----------------7--9--7--|
--9----7--9--5--7--5--9--|---8----7----5----7--5--|--9----9--7--9--5--7--5--|
--7----5--7-----------7--|------------------------|--7----7--5--7-----------|


  Q    E  E  E   E  E  E      Q     E   E  Q    E  E   
--------------------------|---------------------------|
--------------------------|---------------------------|
--------------------------|---------------------------|
--------------------------|---------------------------|
--7----7-----7--10--9--7--|--10----10--10--9----9--9--|
--5----5--9--5---8--7--5--|---8-----8---8--7----7--7--|
----------7---------------|---------------------------|


                                  PM PM PM PM PM PM                            
  Q    E  E  E   E  E  E     Q    E  E  E  E  E  E     Q    E  E  E  E  E  E   
--------------------------|-------------------------|-------------------------|
--------------------------|-------------------------|-------------------------|
--------------------------|-------------------------|-------------------------|
--------------------------|-------------------------|-------------------------|
--7----7--7--9--10--9--7--|-------------------------|----------------7--9-----|
--5----5--5--7---8--7--5--|--9----9--9--9--9--9--9--|--9----9--7--9--5--7--9--|
--------------------------|--7----7--7--7--7--7--7--|--7----7--5--7--------7--|


  Q    E  E  E  E  E  E      Q    Q    Q    E  E     Q    E   E  E   E  E   E   
-------------------------|------------------------|----------------------------|
-------------------------|------------------------|----------------------------|
-------------------------|------------------------|----------------------------|
-------------------------|------------------------|----------11--7--11--7--11--|
-------------7--9--7-----|--10----9----7----9--7--|----------------------------|
--9----7--9--5--7--5--9--|---8----7----5----7--5--|--9----9--------------------|
--7----5--7-----------7--|------------------------|--7----7--------------------|


   E  E   E  E   E  E  E  E     Q    E   E  E   E  E   E   
-----------------------------|----------------------------|
-----------------------------|----------------------------|
-----------------------------|----------------------------|
--10--6--10--9------9--7--6--|----------11--7--11--7--11--|
----------------10-----------|----------------------------|
-----------------------------|--9----9--------------------|
-----------------------------|--7----7--------------------|


   E  E  E  E   E   E  E  E     Q    E   E  E   E  E   E   
-----------------------------|----------------------------|
------------9p--7--10--9--7--|----------------------------|
---------9-------------------|----------------------------|
--10--9----------------------|----------11--7--11--7--11--|
-----------------------------|----------------------------|
-----------------------------|--9----9--------------------|
-----------------------------|--7----7--------------------|


   E  E   E  E   E  E  E  E      Q    E  E   E  E   E  E   
-----------------------------|----------------------------|
-----------------------------|----------------------------|
-----------------------------|----------------------------|
--10--6--10--9------9--7--6--|----------------------------|
----------------10-----------|--10----9--7------7---------|
-----------------------------|--------------10-----10--9--|
-----------------------------|----------------------------|


  Q    S  S  S  S E  E  E  E     Q    E   E  E   E  E   E   
------------------------------|----------------------------|
------------------------------|----------------------------|
------------------------------|----------------------------|
--7----6h-7p-6p-4----4--------|----------11--7--11--7--11--|
------------------7-----7--6--|----------------------------|
------------------------------|--9----9--------------------|
------------------------------|--7----7--------------------|


   E  E   E  E   E  E  E  E     Q    E   E  E   E  E   E   
-----------------------------|----------------------------|
-----------------------------|----------------------------|
-----------------------------|----------------------------|
--10--6--10--9------9--7--6--|----------11--7--11--7--11--|
----------------10-----------|----------------------------|
-----------------------------|--9----9--------------------|
-----------------------------|--7----7--------------------|


   E  E  E  E   E   E  E  E     Q    E   E  E   E  E   E   
-----------------------------|----------------------------|
------------9p--7--10--9--7--|----------------------------|
---------9-------------------|----------------------------|
--10--9----------------------|----------11--7--11--7--11--|
-----------------------------|----------------------------|
-----------------------------|--9----9--------------------|
-----------------------------|--7----7--------------------|


   E  E   E  E   E  E  E  E      Q    E  E   E  E   E  E   
-----------------------------|----------------------------|
-----------------------------|----------------------------|
-----------------------------|----------------------------|
--10--6--10--9------9--7--6--|----------------------------|
----------------10-----------|--10----9--7------7---------|
-----------------------------|--------------10-----10--9--|
-----------------------------|----------------------------|


  Q    S  S  S  S E  E  E  E     Q    E   E  E   E  E   E   
------------------------------|----------------------------|
------------------------------|----------------------------|
------------------------------|----------------------------|
--7----6h-7p-6p-4----4--------|----------11--7--11--7--11--|
------------------7-----7--6--|----------------------------|
------------------------------|--9----9--------------------|
------------------------------|--7----7--------------------|


   E  E   E  E   E  E  E  E     Q    E   E  E   E  E   E   
-----------------------------|----------------------------|
-----------------------------|----------------------------|
-----------------------------|----------------------------|
--10--6--10--9------9--7--6--|----------11--7--11--7--11--|
----------------10-----------|----------------------------|
-----------------------------|--9----9--------------------|
-----------------------------|--7----7--------------------|


   E  E  E  E   E   E  E  E     Q    E   E  E   E  E   E   
-----------------------------|----------------------------|
------------9p--7--10--9--7--|----------------------------|
---------9-------------------|----------------------------|
--10--9----------------------|----------11--7--11--7--11--|
-----------------------------|----------------------------|
-----------------------------|--9----9--------------------|
-----------------------------|--7----7--------------------|


   E  E   E  E   E  E  E  E      Q    E  E   E  E   E  E   
-----------------------------|----------------------------|
-----------------------------|----------------------------|
-----------------------------|----------------------------|
--10--6--10--9------9--7--6--|----------------------------|
----------------10-----------|--10----9--7------7---------|
-----------------------------|--------------10-----10--9--|
-----------------------------|----------------------------|


                                              PM PM PM  
  Q    S  S  S  S E  E  E  E     Q    E  Q    E  E  E   
------------------------------|------------------------|
------------------------------|------------------------|
------------------------------|------------------------|
--7----6h-7p-6p-4----4--------|------------------------|
------------------7-----7--6--|------------------------|
------------------------------|--9----9--9----9--9--9--|
------------------------------|--7----7--7----7--7--7--|


  PM                                     ^    ^    PM  
  E  E  Q     Q    Q        E    E    E  Q    Q    E   
------------------------|-----------------------------|
------------------------|-----------------------------|
------------------------|-----------------------------|
------------------------|-----------------------------|
-----7--9----10----9----|-----------------------------|
--9--5--7-----8----7----|-----------------------------|
--7---------------------|--10h--12p--10--7----7----7--|


  PM PM                                   PM PM PM    PM                     
  E  E   Q.      E   Q       Q    E  Q    E  E  E     E  E  Q     Q    Q     
--------------------------|------------------------|------------------------|
--------------------------|------------------------|------------------------|
--------------------------|------------------------|------------------------|
--------------------------|------------------------|------------------------|
--------------------------|------------------------|-----7--9----10----9----|
--------12-------x--10----|--9----9--9----9--9--9--|--9--5--7-----8----7----|
--7--7--10-------x---8----|--7----7--7----7--7--7--|--7---------------------|


                ^    ^    PM    PM                        
   E    E    E  Q    Q    E     E  S S E  E  E  E  E  E   
-----------------------------|---------------------------|
-----------------------------|---------------------------|
-----------------------------|---------------------------|
-----------------------------|---------------------------|
-----------------------------|---------------------------|
-----------------------------|-----7-8-7--7--5--7--5-----|
--10h--12p--10--7----7----7--|--7---------------------7--|


               PM PM PM    PM                                     ^    ^    PM  
  Q    E  Q    E  E  E     E  E  Q     Q    Q        E    E    E  Q    Q    E   
------------------------|------------------------|-----------------------------|
------------------------|------------------------|-----------------------------|
------------------------|------------------------|-----------------------------|
------------------------|------------------------|-----------------------------|
------------------------|-----7--9----10----9----|-----------------------------|
--9----9--9----9--9--9--|--9--5--7-----8----7----|-----------------------------|
--7----7--7----7--7--7--|--7---------------------|--10h--12p--10--7----7----7--|


  PM PM                                   PM PM PM    PM                     
  E  E   Q.      E   Q       Q    E  Q    E  E  E     E  E  Q     Q    Q     
--------------------------|------------------------|------------------------|
--------------------------|------------------------|------------------------|
--------------------------|------------------------|------------------------|
--------------------------|------------------------|------------------------|
--------------------------|------------------------|-----7--9----10----9----|
--------12-------x--10----|--9----9--9----9--9--9--|--9--5--7-----8----7----|
--7--7--10-------x---8----|--7----7--7----7--7--7--|--7---------------------|


                                                            Use whammy bar    
                ^    ^    PM    PM                                            
   E    E    E  Q    Q    E     E  S S E  E  E  E  E  E     W                 
-----------------------------|---------------------------|-------------------|
-----------------------------|---------------------------|-------------------|
-----------------------------|---------------------------|-------------------|
-----------------------------|---------------------------|-------------------|
-----------------------------|---------------------------|-------------------|
-----------------------------|-----7-8-7--7--5--7--5-----|-------------------|
--10h--12p--10--7----7----7--|--7---------------------7--|-------------------|


  W                   W                   W                   W                 
-------------------|-------------------|-------------------|-------------------|
-------------------|-------------------|-------------------|-------------------|
-------------------|-------------------|-------------------|-------------------|
-------------------|-------------------|-------------------|-------------------|
-------------------|-------------------|-------------------|-------------------|
-------------------|-------------------|-------------------|-------------------|
-------------------|-------------------|-------------------|-------------------|


                                           
  W                   W                   W                                
-------------------|-------------------|----------------------------------|
-------------------|-------------------|----------------------------------|
-------------------|-------------------|----------------------------------|
-------------------|-------------------|----------------------------------|
-------------------|-------------------|----------------------------------|
-------------------|-------------------|----------------------------------|
-------------------|-------------------|----------------------------------|


-------------------|-------------------|-------------------|-----------|
-------------------|-------------------|-------------------|-----------|
-------------------|-------------------|-------------------|-----------|
-------------------|-------------------|-------------------|-----------|
-------------------|-------------------|-------------------|-----------|
-------------------|-------------------|-------------------|-----------|
-------------------|-------------------|-------------------|-----------|


-----------|-----------|-----------|-----------|-----------|-----------|
-----------|-----------|-----------|-----------|-----------|-----------|
-----------|-----------|-----------|-----------|-----------|-----------|
-----------|-----------|-----------|-----------|-----------|-----------|
-----------|-----------|-----------|-----------|-----------|-----------|
-----------|-----------|-----------|-----------|-----------|-----------|
-----------|-----------|-----------|-----------|-----------|-----------|


-----------|-----------|-----------|-----------|-----------|-----------|
-----------|-----------|-----------|-----------|-----------|-----------|
-----------|-----------|-----------|-----------|-----------|-----------|
-----------|-----------|-----------|-----------|-----------|-----------|
-----------|-----------|-----------|-----------|-----------|-----------|
-----------|-----------|-----------|-----------|-----------|-----------|
-----------|-----------|-----------|-----------|-----------|-----------|


                                           PM  PM  PM  PM  
  Q    Q    E   Q     E      E   E   Q     E   E   E   E   
-------------------------|--------------------------------|
-------------------------|--------------------------------|
-------------------------|--------------------------------|
-------------------------|--------------------------------|
-------------------------|--------------------------------|
--9----9-------11----12--|---L--12--12----12--12--12--12--|
--7----7----x---9----10--|---L--10--10----10--10--10--10--|


                                               PM  PM  PM  
  Q    Q    E   Q     E      E   E   E   Q     E   E   E   
-------------------------|--------------------------------|
-------------------------|--------------------------------|
-------------------------|--------------------------------|
-------------------------|--------------------------------|
--9----9-------11----12--|------12--12--14----14--14--14--|
--7----7----x---9----10--|---L--10--10--12----12--12--12--|
-------------------------|--------------------------------|


                                           PM  PM  PM  PM  
  Q    Q    E   Q     E      E   E   Q     E   E   E   E   
-------------------------|--------------------------------|
-------------------------|--------------------------------|
-------------------------|--------------------------------|
-------------------------|--------------------------------|
-------------------------|---L----------------------------|
--9----9-------11----12--|---L--12--12----12--12--12--12--|
--7----7----x---9----10--|---L--10--10----10--10--10--10--|


                                               PM  PM  PM  
  Q    Q    E   Q     E      E   E   E   Q     E   E   E   
-------------------------|--------------------------------|
-------------------------|--------------------------------|
-------------------------|--------------------------------|
-------------------------|--------------------------------|
--9----9-------11----12--|------12--12--14----14--14--14--|
--7----7----x---9----10--|---L--10--10--12----12--12--12--|
-------------------------|--------------------------------|


                                           PM  PM  PM  PM  
  Q    Q    E   Q     E      E   E   Q     E   E   E   E   
-------------------------|--------------------------------|
-------------------------|--------------------------------|
-------------------------|--------------------------------|
-------------------------|--------------------------------|
-------------------------|---L----------------------------|
--9----9-------11----12--|---L--12--12----12--12--12--12--|
--7----7----x---9----10--|---L--10--10----10--10--10--10--|


                                               PM  PM  PM  
  Q    Q    E   Q     E      E   E   E   Q     E   E   E   
-------------------------|--------------------------------|
-------------------------|--------------------------------|
-------------------------|--------------------------------|
-------------------------|--------------------------------|
--9----9-------11----12--|------12--12--14----14--14--14--|
--7----7----x---9----10--|---L--10--10--12----12--12--12--|
-------------------------|--------------------------------|


                                       PM PM PM PM                             
  Q    Q     E  Q    E      E  E  Q    E  E  E  E      Q     Q    E  Q     E   
------------------------|--------------------------|--------------------------|
------------------------|--------------------------|--------------------------|
------------------------|--------------------------|--------------------------|
------------------------|--------------------------|--------------------------|
------------------------|--------------------------|--11----11-------9--------|
--9----9-----x--7----5--|---L--5--5----5--5--5--5--|---9-----9----x--7----12--|
--7----7--------5----3--|------3--3----3--3--3--3--|----------------------10--|


                     PM  PM  PM                                          
   E   E   E   Q     E   E   E     W                   W                 
--------------------------------|-------------------|-------------------|
--------------------------------|-------------------|-------------------|
--------------------------------|-------------------|-------------------|
--------------------------------|-------------------|-------------------|
--------------------------------|-------------------|-------------------|
------12--12--11----11--11--11--|--9----------------|--L----------------|
---L--10--10---9-----9---9---9--|--7----------------|--L----------------|


  W                   W                    W                 
-------------------|-------------------|--------------------|
-------------------|-------------------|--------------------|
-------------------|-------------------|--14----------------|
-------------------|-------------------|--------------------|
-------------------|-------------------|--12----------------|
--L----------------|--L----------------|--------------------|
--L----------------|--L----------------|--------------------|


                        A lot of feedback on this part                      
   W                    W                                 W                 
--------------------|---------------------------------|--------------------|
--------------------|---------------------------------|--------------------|
---L----------------|---L-----------------------------|---L----------------|
--------------------|---------------------------------|--------------------|
---L----------------|---L-----------------------------|---L----------------|
--------------------|---------------------------------|--------------------|
--------------------|---------------------------------|--------------------|


   W                    W                    W                 
--------------------|--------------------|--------------------|
--------------------|--------------------|--------------------|
--11----------------|---L----------------|---L----------------|
--------------------|--------------------|--------------------|
---9----------------|---L----------------|---L----------------|
--------------------|--------------------|--------------------|
--------------------|--------------------|--------------------|


                          PM PM PM PM PM PM PM    PM PM PM PM PM PM PM PM  
   W                   E  E  E  E  E  E  E  E     E  E  E  E  E  E  E  E   
--------------------|--------------------------|--------------------------|
--------------------|--------------------------|--------------------------|
---L----------------|--------------------------|--------------------------|
--------------------|--------------------------|--------------------------|
---L----------------|--------------------------|--------------------------|
--------------------|--------------------------|--------------------------|
--------------------|--7--7--7--7--7--7--7--7--|--7--7--7--7--7--7--7--7--|


     PM PM PM PM PM PM PM         PM  PM  PM  PM  PM  PM  PM  
  E  E  E  E  E  E  E  E      E   E   E   E   E   E   E   E   
--------------------------|----------------------------------|
--------------------------|----------------------------------|
--------------------------|----------------------------------|
--------------------------|----------------------------------|
--------------------------|----------------------------------|
--------------------------|----------------------------------|
--3--3--3--3--3--3--3--3--|--10--10--10--10--10--10--10--10--|


  Q    E  E  E  E  E  E     Q    E  E  E   E  E  E   
-------------------------|--------------------------|
-------------------------|--------------------------|
-------------------------|--------------------------|
-------------------------|--------------------------|
----------------7--9--7--|--7----7-----7--10--9--7--|
--9----9--7--9--5--7--5--|--5----5--9--5---8--7--5--|
--7----7--5--7-----------|----------7---------------|


   Q     E   E  Q    E  E     Q    E  E  E   E  E  E   
---------------------------|--------------------------|
---------------------------|--------------------------|
---------------------------|--------------------------|
---------------------------|--------------------------|
--10----10--10--9----9--9--|--7----7--7--9--10--9--7--|
---8-----8---8--7----7--7--|--5----5--5--7---8--7--5--|
---------------------------|--------------------------|


       PM PM PM PM PM PM                                                      
  Q    E  E  E  E  E  E     Q    E  E  E  E  E  E     Q    E  E  E  E  E  E   
-------------------------|-------------------------|-------------------------|
-------------------------|-------------------------|-------------------------|
-------------------------|-------------------------|-------------------------|
-------------------------|-------------------------|-------------------------|
-------------------------|----------------7--9-----|-------------7--9--7-----|
--9----9--9--9--9--9--9--|--9----9--7--9--5--7--9--|--9----7--9--5--7--5--9--|
--7----7--7--7--7--7--7--|--7----7--5--7--------7--|--7----5--7-----------7--|


   Q    Q    Q    E  E     Q    E  E  E  E  E  E     Q    E  E  E   E  E  E   
------------------------|-------------------------|--------------------------|
------------------------|-------------------------|--------------------------|
------------------------|-------------------------|--------------------------|
------------------------|-------------------------|--------------------------|
--10----9----7----9--7--|----------------7--9--7--|--7----7-----7--10--9--7--|
---8----7----5----7--5--|--9----9--7--9--5--7--5--|--5----5--9--5---8--7--5--|
------------------------|--7----7--5--7-----------|----------7---------------|


   Q     E   E  Q    E  E     Q    E  E  E   E  E  E   
---------------------------|--------------------------|
---------------------------|--------------------------|
---------------------------|--------------------------|
---------------------------|--------------------------|
--10----10--10--9----9--9--|--7----7--7--9--10--9--7--|
---8-----8---8--7----7--7--|--5----5--5--7---8--7--5--|
---------------------------|--------------------------|


       PM PM PM PM PM PM                                                      
  Q    E  E  E  E  E  E     Q    E  E  E  E  E  E     Q    E  E  E  E  E  E   
-------------------------|-------------------------|-------------------------|
-------------------------|-------------------------|-------------------------|
-------------------------|-------------------------|-------------------------|
-------------------------|-------------------------|-------------------------|
-------------------------|----------------7--9-----|-------------7--9--7-----|
--9----9--9--9--9--9--9--|--9----9--7--9--5--7--9--|--9----7--9--5--7--5--9--|
--7----7--7--7--7--7--7--|--7----7--5--7--------7--|--7----5--7-----------7--|


                                        PM PM PM    PM                     
   Q    Q    Q    E  E     Q    E  Q    E  E  E     E  E  Q     Q    Q     
------------------------|------------------------|------------------------|
------------------------|------------------------|------------------------|
------------------------|------------------------|------------------------|
------------------------|------------------------|------------------------|
--10----9----7----9--7--|------------------------|-----7--9----10----9----|
---8----7----5----7--5--|--9----9--9----9--9--9--|--9--5--7-----8----7----|
------------------------|--7----7--7----7--7--7--|--7---------------------|


                ^    ^    PM    PM PM                    
   E    E    E  Q    Q    E     E  E   Q.      E   Q     
-----------------------------|--------------------------|
-----------------------------|--------------------------|
-----------------------------|--------------------------|
-----------------------------|--------------------------|
-----------------------------|--------------------------|
-----------------------------|--------12-------x--10----|
--10h--12p--10--7----7----7--|--7--7--10-------x---8----|


               PM PM PM    PM                                     ^    ^    PM  
  Q    E  Q    E  E  E     E  E  Q     Q    Q        E    E    E  Q    Q    E   
------------------------|------------------------|-----------------------------|
------------------------|------------------------|-----------------------------|
------------------------|------------------------|-----------------------------|
------------------------|------------------------|-----------------------------|
------------------------|-----7--9----10----9----|-----------------------------|
--9----9--9----9--9--9--|--9--5--7-----8----7----|-----------------------------|
--7----7--7----7--7--7--|--7---------------------|--10h--12p--10--7----7----7--|


  PM                                       PM PM PM    PM                     
  E  S S E  E  E  E  E  E     Q    E  Q    E  E  E     E  E  Q     Q    Q     
---------------------------|------------------------|------------------------|
---------------------------|------------------------|------------------------|
---------------------------|------------------------|------------------------|
---------------------------|------------------------|------------------------|
---------------------------|------------------------|-----7--9----10----9----|
-----7-8-7--7--5--7--5-----|--9----9--9----9--9--9--|--9--5--7-----8----7----|
--7---------------------7--|--7----7--7----7--7--7--|--7---------------------|


                ^    ^    PM    PM PM                    
   E    E    E  Q    Q    E     E  E   Q.      E   Q     
-----------------------------|--------------------------|
-----------------------------|--------------------------|
-----------------------------|--------------------------|
-----------------------------|--------------------------|
-----------------------------|--------------------------|
-----------------------------|--------12-------x--10----|
--10h--12p--10--7----7----7--|--7--7--10-------x---8----|


               PM PM PM    PM                                     ^    ^    PM  
  Q    E  Q    E  E  E     E  E  Q     Q    Q        E    E    E  Q    Q    E   
------------------------|------------------------|-----------------------------|
------------------------|------------------------|-----------------------------|
------------------------|------------------------|-----------------------------|
------------------------|------------------------|-----------------------------|
------------------------|-----7--9----10----9----|-----------------------------|
--9----9--9----9--9--9--|--9--5--7-----8----7----|-----------------------------|
--7----7--7----7--7--7--|--7---------------------|--10h--12p--10--7----7----7--|


  PM                                                     
  E  S S E  E  E  E  E  E     Q.     Q    Q.             
---------------------------|---------------------|-----||
---------------------------|---------------------|-----||
---------------------------|---------------------|-----||
---------------------------|---------------------|-----||
---------------------------|---------------------|-----||
-----7-8-7--7--5--7--5-----|--9------9-----------|-----||
--7---------------------7--|--7------7-----------|-----||









Guitar # 3:


E||-------|-------|-------|-------|-------|-------|-------|-------|-------|
B||-------|-------|-------|-------|-------|-------|-------|-------|-------|
G||-------|-------|-------|-------|-------|-------|-------|-------|-------|
D||-------|-------|-------|-------|-------|-------|-------|-------|-------|
A||-------|-------|-------|-------|-------|-------|-------|-------|-------|
E||-------|-------|-------|-------|-------|-------|-------|-------|-------|
B||-------|-------|-------|-------|-------|-------|-------|-------|-------|


-------|-------|-------|-------|-------|-------|-------|-------|-------|-------|
-------|-------|-------|-------|-------|-------|-------|-------|-------|-------|
-------|-------|-------|-------|-------|-------|-------|-------|-------|-------|
-------|-------|-------|-------|-------|-------|-------|-------|-------|-------|
-------|-------|-------|-------|-------|-------|-------|-------|-------|-------|
-------|-------|-------|-------|-------|-------|-------|-------|-------|-------|
-------|-------|-------|-------|-------|-------|-------|-------|-------|-------|


-------|-------|-------|-------|-------|-------|-------|-------|-------|-------|
-------|-------|-------|-------|-------|-------|-------|-------|-------|-------|
-------|-------|-------|-------|-------|-------|-------|-------|-------|-------|
-------|-------|-------|-------|-------|-------|-------|-------|-------|-------|
-------|-------|-------|-------|-------|-------|-------|-------|-------|-------|
-------|-------|-------|-------|-------|-------|-------|-------|-------|-------|
-------|-------|-------|-------|-------|-------|-------|-------|-------|-------|


-------|-------|-------|-------|-------|-------|-------|-------|-------|-------|
-------|-------|-------|-------|-------|-------|-------|-------|-------|-------|
-------|-------|-------|-------|-------|-------|-------|-------|-------|-------|
-------|-------|-------|-------|-------|-------|-------|-------|-------|-------|
-------|-------|-------|-------|-------|-------|-------|-------|-------|-------|
-------|-------|-------|-------|-------|-------|-------|-------|-------|-------|
-------|-------|-------|-------|-------|-------|-------|-------|-------|-------|


-------|-------|-------|-------|-------|-------|-------|-------|-------|-------|
-------|-------|-------|-------|-------|-------|-------|-------|-------|-------|
-------|-------|-------|-------|-------|-------|-------|-------|-------|-------|
-------|-------|-------|-------|-------|-------|-------|-------|-------|-------|
-------|-------|-------|-------|-------|-------|-------|-------|-------|-------|
-------|-------|-------|-------|-------|-------|-------|-------|-------|-------|
-------|-------|-------|-------|-------|-------|-------|-------|-------|-------|


-------|-------|-------|-------|-------|-------|-------|-------|-------|-------|
-------|-------|-------|-------|-------|-------|-------|-------|-------|-------|
-------|-------|-------|-------|-------|-------|-------|-------|-------|-------|
-------|-------|-------|-------|-------|-------|-------|-------|-------|-------|
-------|-------|-------|-------|-------|-------|-------|-------|-------|-------|
-------|-------|-------|-------|-------|-------|-------|-------|-------|-------|
-------|-------|-------|-------|-------|-------|-------|-------|-------|-------|


-------|-------|-------|-------|-------|-------|-------|-------|-------|-------|
-------|-------|-------|-------|-------|-------|-------|-------|-------|-------|
-------|-------|-------|-------|-------|-------|-------|-------|-------|-------|
-------|-------|-------|-------|-------|-------|-------|-------|-------|-------|
-------|-------|-------|-------|-------|-------|-------|-------|-------|-------|
-------|-------|-------|-------|-------|-------|-------|-------|-------|-------|
-------|-------|-------|-------|-------|-------|-------|-------|-------|-------|


       PM PM PM PM PM PM    PM PM PM PM PM PM PM PM         PM PM PM PM PM PM  
  Q    E  E  E  E  E  E     E  E  E  E  E  E  E  E     Q    E  E  E  E  E  E   
-------------------------|--------------------------|-------------------------|
-------------------------|--------------------------|-------------------------|
-------------------------|--------------------------|-------------------------|
-------------------------|--------------------------|-------------------------|
-------------------------|--------------------------|-------------------------|
-------------------------|--------------------------|-------------------------|
--7----7--7--7--7--7--7--|--7--7--7--7--7--7--7--7--|--7----7--7--7--7--7--7--|


  PM PM PM PM PM                  PM PM PM PM PM PM    PM PM PM PM PM PM PM PM  
  E  E  E  E  E   E  Q       Q    E  E  E  E  E  E     E  E  E  E  E  E  E  E   
--------------------------|-------------------------|--------------------------|
--------------------------|-------------------------|--------------------------|
--------------------------|-------------------------|--------------------------|
--------------------------|-------------------------|--------------------------|
--------------------------|-------------------------|--------------------------|
--------------------------|-------------------------|--------------------------|
--7--7--7--7--7--10--8----|--7----7--7--7--7--7--7--|--7--7--7--7--7--7--7--7--|


       PM PM PM PM PM PM           PM  PM  PM  PM  PM  PM                    
  Q    E  E  E  E  E  E      Q     E   E   E   E   E   E                     
-------------------------|--------------------------------|-----|-----|-----|
-------------------------|--------------------------------|-----|-----|-----|
-------------------------|--------------------------------|-----|-----|-----|
-------------------------|--------------------------------|-----|-----|-----|
-------------------------|--------------------------------|-----|-----|-----|
-------------------------|--------------------------------|-----|-----|-----|
--3----3--3--3--3--3--3--|--10----10--10--10--10--10--10--|-----|-----|-----|


-----|-----|-----|-----|-----|-----|-----|-----|-----|-----|-----|-----|-----|
-----|-----|-----|-----|-----|-----|-----|-----|-----|-----|-----|-----|-----|
-----|-----|-----|-----|-----|-----|-----|-----|-----|-----|-----|-----|-----|
-----|-----|-----|-----|-----|-----|-----|-----|-----|-----|-----|-----|-----|
-----|-----|-----|-----|-----|-----|-----|-----|-----|-----|-----|-----|-----|
-----|-----|-----|-----|-----|-----|-----|-----|-----|-----|-----|-----|-----|
-----|-----|-----|-----|-----|-----|-----|-----|-----|-----|-----|-----|-----|


  W                   W                   W                   W                 
-------------------|-------------------|-------------------|-------------------|
-------------------|-------------------|-------------------|-------------------|
-------------------|-------------------|-------------------|-------------------|
-------------------|-------------------|-------------------|-------------------|
-------------------|-------------------|-------------------|-------------------|
--9----------------|--L----------------|--9----------------|--L----------------|
--7----------------|--L----------------|--7----------------|--L----------------|


  W                   W                   W                   W                 
-------------------|-------------------|-------------------|-------------------|
-------------------|-------------------|-------------------|-------------------|
-------------------|-------------------|-------------------|-------------------|
-------------------|-------------------|-------------------|-------------------|
-------------------|-------------------|-------------------|-------------------|
--9----------------|--L----------------|--9----------------|--L----------------|
--7----------------|--L----------------|--7----------------|--L----------------|


  W                   W                   W                   W                 
-------------------|-------------------|-------------------|-------------------|
-------------------|-------------------|-------------------|-------------------|
-------------------|-------------------|-------------------|-------------------|
-------------------|-------------------|-------------------|-------------------|
-------------------|-------------------|-------------------|-------------------|
-------------------|-------------------|-------------------|-------------------|
-------------------|-------------------|-------------------|-------------------|


  W                   W                   W                   W                 
-------------------|-------------------|-------------------|-------------------|
-------------------|-------------------|-------------------|-------------------|
-------------------|-------------------|-------------------|-------------------|
-------------------|-------------------|-------------------|-------------------|
-------------------|-------------------|-------------------|-------------------|
-------------------|-------------------|-------------------|-------------------|
-------------------|-------------------|-------------------|-------------------|


  W                   W                   W                   W                 
-------------------|-------------------|-------------------|-------------------|
-------------------|-------------------|-------------------|-------------------|
-------------------|-------------------|-------------------|-------------------|
-------------------|-------------------|-------------------|-------------------|
-------------------|-------------------|-------------------|-------------------|
-------------------|-------------------|-------------------|-------------------|
-------------------|-------------------|-------------------|-------------------|


  W                   W                   W                   W                 
-------------------|-------------------|-------------------|-------------------|
-------------------|-------------------|-------------------|-------------------|
-------------------|-------------------|-------------------|-------------------|
-------------------|-------------------|-------------------|-------------------|
-------------------|-------------------|-------------------|-------------------|
-------------------|-------------------|-------------------|-------------------|
-------------------|-------------------|-------------------|-------------------|


  W                   W                   W                   W                 
-------------------|-------------------|-------------------|-------------------|
-------------------|-------------------|-------------------|-------------------|
-------------------|-------------------|-------------------|-------------------|
-------------------|-------------------|-------------------|-------------------|
-------------------|-------------------|-------------------|-------------------|
-------------------|-------------------|-------------------|-------------------|
-------------------|-------------------|-------------------|-------------------|


  W                   W                   W                   W                 
-------------------|-------------------|-------------------|-------------------|
-------------------|-------------------|-------------------|-------------------|
-------------------|-------------------|-------------------|-------------------|
-------------------|-------------------|-------------------|-------------------|
-------------------|-------------------|-------------------|-------------------|
-------------------|-------------------|-------------------|-------------------|
-------------------|-------------------|-------------------|-------------------|


  W                   W                   W                   W                 
-------------------|-------------------|-------------------|-------------------|
-------------------|-------------------|-------------------|-------------------|
-------------------|-------------------|-------------------|-------------------|
-------------------|-------------------|-------------------|-------------------|
-------------------|-------------------|-------------------|-------------------|
-------------------|-------------------|-------------------|-------------------|
-------------------|-------------------|-------------------|-------------------|


  W                   W                   W                   W                 
-------------------|-------------------|-------------------|-------------------|
-------------------|-------------------|-------------------|-------------------|
-------------------|-------------------|-------------------|-------------------|
-------------------|-------------------|-------------------|-------------------|
-------------------|-------------------|-------------------|-------------------|
-------------------|-------------------|-------------------|-------------------|
-------------------|-------------------|-------------------|-------------------|


-------------------|-------------------|-------------------|-------------------|
-------------------|-------------------|-------------------|-------------------|
-------------------|-------------------|-------------------|-------------------|
-------------------|-------------------|-------------------|-------------------|
-------------------|-------------------|-------------------|-------------------|
-------------------|-------------------|-------------------|-------------------|
-------------------|-------------------|-------------------|-------------------|


-------------------|-------------------|-------------------|-------------------|
-------------------|-------------------|-------------------|-------------------|
-------------------|-------------------|-------------------|-------------------|
-------------------|-------------------|-------------------|-------------------|
-------------------|-------------------|-------------------|-------------------|
-------------------|-------------------|-------------------|-------------------|
-------------------|-------------------|-------------------|-------------------|


                                         Q.      Q.      Q     
-------------------|-----|-----|-----|------------------------|
-------------------|-----|-----|-----|------------------------|
-------------------|-----|-----|-----|--14------11------------|
-------------------|-----|-----|-----|------------------11----|
-------------------|-----|-----|-----|------------------------|
-------------------|-----|-----|-----|------------------------|
-------------------|-----|-----|-----|------------------------|


   W                    Q.      Q.      Q        W                 
--------------------|------------------------|--------------------|
--------------------|------------------------|--------------------|
--------------------|--14------11------------|--------------------|
---L----------------|------------------11----|---L----------------|
--------------------|------------------------|--------------------|
--------------------|------------------------|--------------------|
--------------------|------------------------|--------------------|


-------------------|-------------------|-------------------|-------------------|
-------------------|-------------------|-------------------|-------------------|
-------------------|-------------------|-------------------|-------------------|
-------------------|-------------------|-------------------|-------------------|
-------------------|-------------------|-------------------|-------------------|
-------------------|-------------------|-------------------|-------------------|
-------------------|-------------------|-------------------|-------------------|


-------------------|-------------------|-------------------|-------------------|
-------------------|-------------------|-------------------|-------------------|
-------------------|-------------------|-------------------|-------------------|
-------------------|-------------------|-------------------|-------------------|
-------------------|-------------------|-------------------|-------------------|
-------------------|-------------------|-------------------|-------------------|
-------------------|-------------------|-------------------|-------------------|


-------------------|-------------------|-------------------|-------------------|
-------------------|-------------------|-------------------|-------------------|
-------------------|-------------------|-------------------|-------------------|
-------------------|-------------------|-------------------|-------------------|
-------------------|-------------------|-------------------|-------------------|
-------------------|-------------------|-------------------|-------------------|
-------------------|-------------------|-------------------|-------------------|


-------------------|-------------------|-------------------|-------------------|
-------------------|-------------------|-------------------|-------------------|
-------------------|-------------------|-------------------|-------------------|
-------------------|-------------------|-------------------|-------------------|
-------------------|-------------------|-------------------|-------------------|
-------------------|-------------------|-------------------|-------------------|
-------------------|-------------------|-------------------|-------------------|


-------------------|-------------------|-------------------|-------------------|
-------------------|-------------------|-------------------|-------------------|
-------------------|-------------------|-------------------|-------------------|
-------------------|-------------------|-------------------|-------------------|
-------------------|-------------------|-------------------|-------------------|
-------------------|-------------------|-------------------|-------------------|
-------------------|-------------------|-------------------|-------------------|


-------------------|-------------------|-------------------|-------------------|
-------------------|-------------------|-------------------|-------------------|
-------------------|-------------------|-------------------|-------------------|
-------------------|-------------------|-------------------|-------------------|
-------------------|-------------------|-------------------|-------------------|
-------------------|-------------------|-------------------|-------------------|
-------------------|-------------------|-------------------|-------------------|


-------------------|-------------------|-------------------|-------------------|
-------------------|-------------------|-------------------|-------------------|
-------------------|-------------------|-------------------|-------------------|
-------------------|-------------------|-------------------|-------------------|
-------------------|-------------------|-------------------|-------------------|
-------------------|-------------------|-------------------|-------------------|
-------------------|-------------------|-------------------|-------------------|


-------------------|-------------------|-------------------|-------------------|
-------------------|-------------------|-------------------|-------------------|
-------------------|-------------------|-------------------|-------------------|
-------------------|-------------------|-------------------|-------------------|
-------------------|-------------------|-------------------|-------------------|
-------------------|-------------------|-------------------|-------------------|
-------------------|-------------------|-------------------|-------------------|


-------------------|-------------------||
-------------------|-------------------||
-------------------|-------------------||
-------------------|-------------------||
-------------------|-------------------||
-------------------|-------------------||
-------------------|-------------------||






Duration Legend
---------------
W - whole
H - half
Q - quarter
E - 8th
S - 16th
T - 32nd
X - 64th
. - note dotted
|-n-|  - n-tuplets


Tablature Legend
----------------
L - tied note
x - dead note
g - grace note
(n) - ghost note
> - accentuded note
NH - natural harmonic
AH - artificial harmonic
TH - tapped harmonic
SH - semi harmonic
PH - pitch harmonic
h - hammer on
p - pull off
b - bend
br - bendRelease
pb - preBend
pbr - preBendRelease
brb - bendReleaseBend
\n/ - tremolo bar dip
\n - tremolo bar dive
-/n - tremolo bar Release up
/n\ - tremolo bar inverted dip
/n - tremolo bar return
-\n - tremolo bar Release down
S - shift slide
s - legato slide
/ -  slide into from below or out of upwards
\ -  slide into from above or out of downwards
~ - vibrato
W - wide vibrato
tr - trill
TP - tremolo picking
T - tapping
S - slap
P - pop
< - fade in
^ - brush up
v - brush down
Tap to rate this tab
 
# A B C D E F G H I J K L M N O P Q R S T U V W X Y Z