Song name
# A B C D E F G H I J K L M N O P Q R S T U V W X Y Z

Unearth - Zombie Autopilot tab

the entire song is played on 7 strings, but the solo doesnt use the low B so, i just have
6 bars. The tabs for this song are mostly incorrect,i think the other regular text tab for it
is pretty good,but here's how i play this awesome solo,it should be right...so here it is..

* credit the 4th bar to whoever made the pro tab with 5 stars, i had someone look at it
for me cuz i couldnt figure it out and i dont have guitar pro.

Tuning- standard

Buz:
|----------------------------------------------|
|----------------------------------------------|
|----------------------------------------------|
|--9-11h12p11-9-11h12p11--9-11h12p11--14-12-11-|
|-9----------9----------10----------10---------|
|----------------------------------------------|

|---------------------------------------------------------------|
|------------------------------------------------------------\12|
|--------------------------------------9-------9-11---9-11-12---|
|---------9------9-11--9-11-12-9-11-12---11-12-----12-----------|
|-9-10-12--10-12-----12-----------------------------------------|
|---------------------------------------------------------------|

|-14-15-12-14--14----------|
|------------15---10h12p10~|
|--------------------------|
|--------------------------|
|--------------------------|
|--------------------------|

|--------------------------------------------------------------------------|
|--------------------------------------------------------------------------|
|----------11-9--------9-----11-9--------9------11-9--------9-----11-9-----|
|----9-12-9----12-9-12---12-9----12-9-12---12-9------12-9-12--12-9-----12-9|
|-12-----------------------------------------------------------------------|
|--------------------------------------------------------------------------|

|--------------------------------------------------------------|
|--------------------------------------------------------------|
|--------------------------------------------------------------|
|-12h14p12h14-11h12p11h12-9h11p12-11h12p11-11-12-14-12-11--11-9|
|--------------------------------------------------------12----|
|--------------------------------------------------------------|

|--------------------------------------------------|
|--------10-------------------10-------------------|
|-----------12-11-9--------------12-11-9-----------|
|-9-11-12----------9---9-11-12---------------------|
|--------------------------------------------------|
|--------------------------------------------------|

Ken: (kick on the wah)
|-------------7h10p7-7h10p7--7h10p7-7h10p7--7h10p7--7b--|
|--------------------------10-------------10------10----|
|-9b-9-9-9-7--------------------------------------------|
|-------------------------------------------------------|
|-------------------------------------------------------|
|-------------------------------------------------------|

|-/19----17p14--------14----13b-t17-13b|(tap 17th fret while holding bend)
|----/16------17p15-17--17b------------|
|--------------------------------------|
|--------------------------------------|
|--------------------------------------|
|--------------------------------------|

|--------------------------------------------------------|
|-----------------------------------------------------/12|
|--------------------------------------------------------|
|-9~-9-11h12p11~-12-11-9-12b~-9-11-12-14-12-11-7~--/9----|
|--------------------------------------------------------|
|--------------------------------------------------------|

|-7-9/10-9-10/12-12-14/15-14-15/17-15-17/19|(sliding optionial,i think
|------------------------------------------| it sounds better, but w/e)
|------------------------------------------|
|------------------------------------------|
|------------------------------------------|
|------------------------------------------|

well there you have it, im sure some of it is slightly incorrect, but its a tough solo, make
your own damn version..
Tap to rate this tab
# A B C D E F G H I J K L M N O P Q R S T U V W X Y Z