Song name
# A B C D E F G H I J K L M N O P Q R S T U V W X Y Z

Unearth - March Of The Mutes tab

-------------------------------------------------------------------------
			     MARCH OF THE MUTES - Unearth
-------------------------------------------------------------------------

Tabbed by: brandon5pennies
Email: brandon.nickel@comcast.net

Unearth uses 7 strings in standard tuning but this can also be played in Drop B which is
1/2 steps lower than standard tuning on a 6 string guitar with the bottom string
to B. All of the arpeggios in this tab are sweep picked. There are 3 and 5 string shapes 
unsure of the key or mode that they're tied in with but I can tell you if it's major or
so I put major or minor above each new shape. Enjoy!

Tuning: 7 string B E A D G B E
            or
            6 string B F# B E G# C#

  minor                       minor                    major
e|-12-7-------7-12-7----------------------9-14-9------9-15-10------10-|
b|------8---8--------8------------------10------10--10-------12--12---|
G|--------9------------9--------------11----------11-----------12-----|
D|-----------------------9----------11--------------------------------|
A|-------------------------10-7/9-12----------------------------------|
E|--------------------------------------------------------------------|
B|--------------------------------------------------------------------|

   major                                minor
e|-15-10------------------------------12-17-12------12-|
b|-------12------------------------13---------13--13---|
G|----------12------------------14--------------14-----|
D|-------------12------------14------------------------|
A|----------------14-10/12-15--------------------------|
E|-----------------------------------------------------|
B|-----------------------------------------------------|

 minor                       minor                    major
e|-12-7-------7-12-7----------------------9-14-9------9-15-10------10-|
b|------8---8--------8------------------10------10--10-------12--12---|
G|--------9------------9--------------11----------11-----------12-----|
D|-----------------------9----------11--------------------------------|
A|-------------------------10-7/9-12----------------------------------|
E|--------------------------------------------------------------------|
B|--------------------------------------------------------------------|

   major                                minor
e|-15-10------------------------------12-17-12------|
b|-------12------------------------13---------13----|
G|----------12------------------14--------------14\-|
D|-------------12------------14---------------------|
A|----------------14-10/12-15-----------------------|
E|--------------------------------------------------|
B|--------------------------------------------------|


| /  slide up
| \  slide down
| h  hammer-on
| p  pull-off
| ~  vibrato
| +  harmonic
| x  Mute note
=============================================================
Tap to rate this tab
 
# A B C D E F G H I J K L M N O P Q R S T U V W X Y Z