Song name
# A B C D E F G H I J K L M N O P Q R S T U V W X Y Z

Unearth - Grave Of Opportunity tab

-------------------------------------------------------------------------------
			     Grave of Opportunity - Unearth
-------------------------------------------------------------------------------
Tabbed by: Jonny Evans
Email:evajon59@aol.com

Tuning: Standard (Note: This is just the intro, the full song will most likely 
need a 7-string guitar and will therefore be in drop-B)

e|-----------------------------------------------|----------------------------|
B|-----------------------------------------------|----------------------------|
G|-----------------------------------------------|--------------------11-9----|
D|-9----9h11h12~-11-9-7~-9~-11-11h12p11p9h11p9p7-|-9----9h11h12~-11-9------12-|
A|---12------------------------------------------|---12-----------------------|
E|-----------------------------------------------|----------------------------|

e|-----------|-----------------------------------------------|--------------|
B|-----------|-----------------------------------------------|--------------|
G|-9---------|-----------------------------------------------|--------------|
D|---11h12p9-|-9----9h11h12~-11-9-7~-9~-11-11h12p11p9h11p9p7-|-9----9h11h12-|
A|-----------|---12------------------------------------------|---12---------|
E|-----------|-----------------------------------------------|--------------|

e|-------------------||
B|-------------------||
G|-9-----------------||  x2
D|---12-11-12p11-----||
A|---------------12--||
E|-------------------||

I'll try an figure out the rest when i can.
Tap to rate this tab
# A B C D E F G H I J K L M N O P Q R S T U V W X Y Z